.

banners

Tablatura fácil de... Lost in machine. Yngwie Malsteen.



  Otro grande de la guitarra que regresa a la actualidad musical con un discazo, al más puro estilo Malsteen, si estoy hablando de Yngwie Malsteen y su "World on fire."
   No podía faltar, como siempre decimos en Tablaturas fáciles éste icono del mundo de la guitarra más dura y es por eso que hoy os he querido dejar unos momentos en tablatura de uno de los temas, en concreto de "Lost in machine".
  En Tablaturas fáciles Yngwie Malsteen.
  Un saludo.
  TabsFácil.






Lost in machine. Yngwie Malsteen.

1.------------------------------------|
2.------------------------------------|
3.------------------------------------|
4.-8-9----8---8-9----8---8-9----8-6---|
5.-----11---------11---------11-----9-|
6.------------------------------------|

1.-----------------------------------|
2.-----------------------------------|
3.-----------------------------------|
4.-8-9----8-6-----8-6-4-6---------6--|
5.-----11-----9------------4-4-4--4--|
6.-----------------------------------|

1.--------------------------|
2.--------------------------|
3.--------------------------|
4.--------6---------6-4-----|
5.-4-4-4--4--4-4-4------8-6-|
6.--------------------------|...



Más tablaturas de...Ynwie Malsteen.

No hay comentarios:

Publicar un comentario en la entrada