.

banners

Tablatura fácil de... The getaway. Red Hot Chili Peppers.



  Poco a poco a la vez que la banda, en Tablaturas fáciles vamos desgranando el que será el próximo lanzamiento de Red Hot Chili Peppers. Hoy le toca al riff de inicio del tema "The getaway" que también dará nombre al disco en cuestión. 
  En principio parece complicado, pero simplemente bajando la velocidad vemos que es de una estructura sencilla, al poco de practicar, empieza a sonar como en el tema. Ánimo!!
  Espero que lo disfrutéis.
  Un saludo.
  TabsFácil.





The getaway. Red Hot Chili Peppers.

1.-----------------------------------|
2.-----------------------------------|
3.-----------------------------------|
4.-7-7--5-5--7-7--5-7--5-5--7-7--7-5-|
5.-----------------------------------|
6.-----------------------------------|

1.-----------------------------------|
2.-----------------------------------|
3.-----------------------------------|
4.-7-7--5-5--7-7--5-7--5-5--7-7--7-5-|
5.-----------------------------------|
6.-----------------------------------|

1.-----------------------------------|
2.-----------------------------------|
3.-----------------------------------|
4.-7-7--5-5--7-7--5-7--5-5--7-7--7-5-|
5.-----------------------------------|
6.-----------------------------------|

1.-----------------------------------|
2.-----------------------------------|
3.-----------------------------------|
4.-7-7--5-5--7-7--5-7--5-5--7-7--7-5-|
5.-----------------------------------|
6.-----------------------------------|...

Más tablaturas de... Red Hot Chili Peppers.

No hay comentarios:

Publicar un comentario