.

banners

Tablatura fácil de... Electrizado. Maná.



  Hoy en Tablaturas fáciles quizás el tema del último disco de Maná más "Electrizado" de todos, como su nombre indica, con un solo muy cortito pero que me ha gustado al escucharlo y por qué no, aquí os dejo unos momentos en tablatura del tema.
  Espero que os guste. 
  Un saludo.
  TabsFácil.




 Electrizado. Maná.

"Oye nena...

1.------------------------------------
2.------------------------------------
3.------------------------------------
4.------------------------------------
5.------------------------------------
6.-0--0-0-0-0--0--0-0-0-0--0--0-0-0-0-

1.-------------
2.-------------
3.-------------
4.-------------
5.-------------
6.--2--2-2-4-2-...(4 veces)

(0:37)

1.----------------------------
2.----------------------------
3.----------------------------
4.-------2-1------------------
5.-----------4-4-4-4----------
6.--4-4--------------2-2--0-2-...(4 veces)

(2:14)

1.-----------------------------------
2.---/11--/12--/9-------/7-7-7-/9-/11
3.-----------------/11---------------
4.-----------------------------------
5.-----------------------------------
6.-----------------------------------

1.-----------------------------------
2.--11\7-----------------------------
3.-------/9-9-/8-9-/11--9h8-/6---/8--
4.-----------------------------7-----
5.-----------------------------------
6.-----------------------------------


1.------7-9-11-9-7----9--7------7----
2.-----------------11------11-9---11-
3.--/9-------------------------------
4.-----------------------------------
5.-----------------------------------
6.-----------------------------------

1.-----------------------------------
2.--9-7-11--9-7---9-7----------------
3.--------------9-----9-8-11--9-8---9
4.--------------------------------11-
5.-----------------------------------
6.-----------------------------------

1.-----------------------------------
2.---------------9-------------------
3.--8------8--/8---8--11(13)(11)(13)-
4.----11-9---------------------------
5.-----------------------------------
6.---------------------------------...

Más tablaturas de... Maná.

No hay comentarios:

Publicar un comentario