.

banners

Tablatura fácil de... Bop!. Steve Vai.



   No podía faltar en un índice de Tablaturas, y mucho menos en el de Tablaturas fáciles, el gran Steve Vai. Aprovechando el tema adelanto de su próximo trabajo, un doble plástico con la reedición de su mítico "Passion and warfare" que irá junto a "Modern Primitive," quiero dejaros un pequeño momento en Tablatura del tema que lleva por nombre "Bop!" 
  Espero que os guste y disfrutéis.
  Un saludo.
  TabsFácil.





Bop!. Steve Vai.

    (3:56)
1.-------------------------------------|
2.---------------8/10-8----------8/9-9-|
3.-/7-5-7-7/9-9----------5/-7-7--------|
4.-------------------------------------|
5.-------------------------------------|
6.-------------------------------------|

1.---------------------------------------|
2.-8----------11-11/13-----9/11----------|
3.---8-8/10------------13-------8/10-8h10
4.---------------------------------------|
5.---------------------------------------|
6.---------------------------------------|

1.-----------------------------------/13-|
2.-/11-9-8----------/13-11-13/15-15------|
3.---------10-8-10-----------------------|
4.---------------------------------------|
5.---------------------------------------|
6.---------------------------------------|

1.-11h13h11/10------------------------|
2.-------------11/13--/20-18h20h18----|
3.---------------------------------21-|
4.------------------------------------|
5.------------------------------------|
6.------------------------------------|

1.------------------------------------|
2.--------------/22-20-22--22(24)-24--|
3.-17-19(21)19------------------------|
4.------------------------------------|
5.------------------------------------|
6.------------------------------------|

1.----------------------------|
2.-(20)18-17--(18)17-15----15-|
3.----------------------17----|
4.----------------------------|
5.----------------------------|
6.----------------------------|...



Más tablaturas de... Steve Vai.

No hay comentarios:

Publicar un comentario