.

banners

Tablatura fácil de... Blue wonderful. Elton Jhon.




  Hace unos meses salía a la luz el álbum número 32 en la carrera de este emblemático músico, del que en Tablaturas fáciles hemos querido recoger un momento en tablatura, en concreto del tema que utilizaba para presentar el disco, "Blue wonderful" para practicar y divertirnos con esa bonita y sencilla intro.
  Un saludo.
  TabsFácil.






Blue wonderful. Elton Jhon.
1.---------------------------------|
2.-----9-/10-9--7------------------|
3.----------------9h11h9-8-----9-8-|
4.-7h9----------------------/9-----|
5.---------------------------------|
6.---------------------------------|

1.---------------------|
2.---------------------|
3.---------------------|
4.-11-9----------------|
5.------11-12-11--9--7-|
6.---------------------|...



Más tablaturas de... Elton Jhon.

No hay comentarios:

Publicar un comentario