.

banners

Tablatura fácil de... Avant la tempête. Dragonforce.



 Suena genial este tema. He escuchado poco de este grupo, "Dragonforce", pero estan bastante bien. Este pedazo es de lo mas tranquilo pero es también muy bueno.
   Tengo que aclarar que he encontrado alguna tablatura de la canción por ahí, pero como tiene "cositas" diferentes, la voy a publicar  en tablaturas fáciles y si os apetece comparáis.
    Un saludo.
    TabsFácil.






Avant la tempête. Dragonforce.

1.----------------------------------------------
2.--------------9-----10h9----------9-----------
3.------11--------11--------11-9-11----11-------
4.---11----11-----------------------------11----
5.-9--------------------------------------------
6.--------------------------------------------10

1.-------------------------------------------------
2.--------9----10h9---------9-------------7-9h7----
3.---11-----11------11-9-11---11--------7-------7--
4.-11--11------------------------11---9-----------9
5.-------------------------------------------------
6.----------------------------------7--------------


1.-------------------------------------------------7
2.---------9-10h9------------------9----10h9-------7
3.-------9--------11---------11------11------11-9--9
4.----11-------------11---11---11------------------9
5.----------------------9--------------------------7
6.-9------------------------------------------------

(0:13)
1.-------------------------------------------------
2.-------------------------------------------------
3.---6-4-6/7-6---4-4h6---------------4-------------
4.-4-------------------7---4-6-6/7-6---7-6---4-----
5.----------------------------------------------/4-
6.-------------------------------------------------

1.--------------------------------------------------
2.--------------------------------------------------
3.--------------------------------------------------
4.---7----/12-11-9-9h11----------------7h9h7-6------
5.-9---9----------------12--9-11-12-11---------7-7h9
6.--------------------------------------------------


(0:38)
1.--------------------------------------------
2.--------------------------------------------
3.-----------------------------------11h13h14-
4./11-9-12-11-9--------------9h11h12----------
5.--------------12-9-9h11h12------------------
6.--------------------------------------------

1.----------
2.-12h14h15-
3.----------
4.----------
5.----------
6.----------



1.-12-------17---16----14-14h12----12-14-------------
2.----14-14---14----14----------14-------14--12-14---
3.-------------------------------------------------14
4.---------------------------------------------------
5.---------------------------------------------------
6.---------------------------------------------------


                                   (0:51)
1.----------------------------------------------
2.----------------------------------------7-9-10
3.-13-14-------------------------------11-------
4.--------16---14-16----------------------------
5.-------------------16---14-16-12--------------
6.----------------------------------------------

1.-------------------------14-----------------------
2.---------7----10------12---14---------------------
3.----7-9-----------7-9---------14------------------
4.-12--------7---------------------16-15------------
5.---------------------------------------17-16------
6.---------------------------------------------17-16

1.-----------
2.-----------
3.-----------
4.---16-18-15
5.-----------
6.-----------

Más tablaturas de... Dragonforce.

No hay comentarios:

Publicar un comentario en la entrada