.

banners

Acordes y tablatura fácil de... Sixteen. Leiva.



 Leiva se rodeaba de dos grandes del pop-rock español, Fito Cabrales y Carlos Tarque para promocionar los últimos conciertos de la gira pólvoratour, antes de volcarse en la grabación de lo que será su próximo trabajo y, del que ya tenemos adelanto en TabsFácil (pincha aquí para ver más). Para ello, grababa un tema inédito "Sixteen" del que os quiero dejar unos momentos en tablatura y unos acordes que espero que os guste y disfrutéis.
  Un saludo.
  TabsFácil.






Sixteen. Leiva.

1.--------------------------------------
2.---7--7--7--7-------------------------
3.---7--7--7--7---6-6h8h6---------------
4.---9-11-11--9-----------9-6-------6-9-
5.---9--9--9--9---------------9-/11-----
6.---7--7--7--7-------------------------

1.--------------------------------------
2.--------------------------------------
3.--6-6h8h6----------------4-6-6-3------
4.----------9-6------4h6h4---------6-4--
5.--------------9-/---------------------
6.--------------------------------------


1.----------------------------------
2.--4-/7-7-7-4----------------------
3.-------------6--6-4---------4-----
4.----------------------6-4-6---6-4-
5.----------------------------------
6.----------------------------------...

  Fa#                                  Si
  Tu vida es un misterio cruel y un vendaval.

  Fa#                                  Si
Cuando no estás de suerte baby estás fatal.

   Mi
Se me revuelven las tri, tri, tripas
  
                 Si
cuando me sueltas palomitas

      Fa#                        Si
y me extorsionas con tu dulce crueldad...


Más tablaturas de...Leiva.

No hay comentarios:

Publicar un comentario