.

banners

Acordes y tablatura fácil de... Hangover. Alestorm.




 Tema gamberro y alegre para Tabs fáciles, al mas puro estilo Alestorm. Si ya sé que es una versión de otra canción la reconocí enseguida pero les ha quedado muy chula, aquí os dejo los Acordes para que intentéis tocarla y disfrutéis como yo lo he hecho.
   Un saludo.
   TabsFácil.




 Hangover. Alestorm.

(Acordes).

1.---6----2-----4-----2---
2.---6----2-----4-----2---
3.---8----2-----6-----4---
4.---8----4-----6-----4---
5.---6----4-----4-----2---
6.--------2---------------




   “I got a hangover

I’ve been drinking too much for sure

I got a hangover

I got an empty cup four me some more

So I can go until they close up

And I can drink until I throw up

And I don’t ever ever waint to growe up

I wanna keep it going, keep, keep it going going…



(Acordes de quintas y riff).

1.-------------------------------------------------
2.-------------------------------------------------
3.-------------------8-6-------------------8-6-----
4.-8---11--6--4----------8-6---6-8-6-----------8-6-
5.-6----9--4--2---6----------9-------6--6----------
6.-------------------------------------------------


1.---------------
2.---------------
3.-----------8---
4.-----6-8-------
5.---9-----9-----
6.---------------


Más tablaturas de... Alestorm.

No hay comentarios:

Publicar un comentario