.

banners

Acordes y tablatura de... Rock you like a hurricane. Scorpions.



  Tremendo escuchar estos temas de mi época de joven en acústico. Ha sido muy gratificante escucharlos y como no, sacar esta pequeña tablatura fácil y acordes para todos vosotros y así, incorporar otro de los grandes a este blog.
 Saludos!!
  TabsFácil.




 Rock you like a hurricane. Scorpions. (Acústico).


1.----------------------------
2.---10---13---11-10-----10---
3.-------------------12-------
4.----------------------------
5.----------------------------
6.----------------------------

 It's early morning
the sun comes out
last night was shaking
and pretty loud.
My cat is purring
and scratches my skin
so what is wrong
with another sin.
The bitch is hungry
she needs to tell
so give her inches
and feed her well.
More days to come
new places to go.
I've got to leave
it's time for a show.

1.-13-12-13------------------------------13-12-13-
2.----------11--------15----11---13-13------------
3.-------------14-12-----14-----------------------
4.------------------------------------------------
5.------------------------------------------------
6.------------------------------------------------



1.---15-13-12------------
2.------------15-13-15---
3.-----------------------
4.-----------------------
5.-----------------------
6.-----------------------

(1:25)
1.-------------------------------------------------
2.-------------------------------------------------
3.-----7-----5--------------------------7----5-----
4.---7------------8----7--5h7h5h7----7-----------8-
5.-5------5----5----5--------------5------5----5---
6.-------------------------------------------------


1.-----------------
2.-----------------
3.-----------------
4.-----7---5h7h5h7-
5.---5-------------
6.-----------------

1.----------------------------------------------
2.----------------------------------------------
3.-----7-----5------------------------7----5----
4.---7------------8---7--5h7h5h7----7----------8
5.-5------5----5----5--------------5-----5---5--
6.----------------------------------------------


1.-----------------------------
2.-----------------------------
3.-----------------------------
4.-----7---5h7h5h7---8-7-5-----
5.---5---------------------8-7-
6.-----------------------------


My body is burning
it starts to shout
desire is coming
it breaks out loud.
Lust is in cages
till storm breaks loose
just have to make it
with someone i choose.

La#M              Rem
The night is calling.
La#M        Rem Do
I have to go.
La#M             Rem
The wolf is hungry,
La#M          Do
he runs the show.



La#M               Rem
He's licking his lips.
La#M            Rem Do
He's ready to win.
La#M             Rem
On the hunt tonight
La#M                 Do
for love at first sting.
Rem      FaM Solm
Here i am,     
La#M Do                 Rem FaM Solm La#M Do
rock you like a hurricane.
Rem      FaM Solm
Here i am,     
La#M Do                 Rem FaM Solm La#M Do
rock you like a hurricane.


Solo (2:31)
1.--------------------------------------
2.-------------------5h6h5----6/8-------
3.------------5-7-9--------7------7-5---
4.-----5-7-8----------------------------
5.---8----------------------------------
6.--------------------------------------. . .



Más tablaturas de... Scorpions.

No hay comentarios:

Publicar un comentario