.

banners

Tabs fácil de...You want a battle? (Here's a war). Bullet for my valentine.



  El 14 de Agosto del año pasado, era la fecha prevista para la salida al mercado del nuevo trabajo de Bullet for my valentine, que llevaría por nombre "Venom" y del que podíamos disfrutar de algunos temas en forma de adelanto.  Uno de ellos, "You want a battle? (Here's a war)" un tema que suena genial, y del que hace bien poco lanzaban vídeo en directo, es del os quiero dejar un momento en tablatura, en concreto, el riff principal.
  Bullet for my Valentine en Tablaturas fáciles.
   Un saludo.
   TabsFácil.








You want a battle? (Here's a war). Bullet for my valentine.

  (0:12)
1.------------------------------------
2.------------------------------------
3.------------------------------------
4.------------------------------------
5.---5-5-5-5--5--5-5--5-5-5-5--5--5-5-
6.------------------------------------

1.------------------------------------
2.------------------------------------
3.--3-2------3-2----------------------
4.------5-3------5-3------------------
5.---------------------5-5-5-5--5--5-5
6.------------------------------------

1.------------------------------------
2.------------------------------------
3.-------------------3-2-----3-2------
4.-----------------------5-3-----5-3--
5.--5-5-5-5--5--5-5-------------------
6.------------------------------------

1.------------------------------------
2.------------------------------------
3.------------------------------------
4.------------------------------------
5.---5-5-5-5--5--5-5--5-5-5-5--5--5-5-
6.------------------------------------

1.------------------------------------
2.------------------------------------
3.--3-2------3-2----------------------
4.------5-3------5-3------------------
5.---------------------5-5-5-5--5--5-5
6.------------------------------------

1.------------------------------------
2.------------------------------------
3.-------------------3-2-----3-2------
4.-----------------------5-3-----5-3--
5.--5-5-5-5--5--5-5-------------------
6.---------------------------------...

Más tablaturas de...Bullet for my Valentine.

No hay comentarios:

Publicar un comentario