.

banners

Tabs fácil de...Where greater men have fallen. Primordial.



 Tremendo, así es como definiría la tabs fácil que os presento, y como suenan esta banda irlandesa de black melódico que me ha sorprendido puesto que tampoco había escuchado nada antes de ahora y eso que ya lleva también sus añitos en esto.
  "Where greater men have fallen" es como se llamaba su último trabajo, sacado a la luz a finales de Noviembre del 2014, si no recuerdo mal y no sé si es cosa mía o si este comentario es ya tópico pero me han recordado en algunas ocasiones a los primeros Black Sabbath y no por la portada sino por su sonido.
  Bueno, gustos  aparte aquí os dejo unos momentos en tablatura, mas concretamente el inicio del tema que espero que lo disfrutéis y os guste como queda.
   Un saludo.
   TabsFácil.





Where greater men have fallen. Primordial.

1.-----------------------------------------
2.-----------------------------------------
3.-----------------------------------------
4.-5--5-5-3-6--6-6-3-5--5-5-3-5--1-1-1-3/5-
5.-----------------------------------------
6.-----------------------------------------

1.--------------------------------------
2.--------------------------------------
3.--------------------------------------
4.-5-5-3-6--6-6-3-5--5-5-3-5--1-1-1-3/5-
5.--------------------------------------
6.--------------------------------------


(0:19)
1.-------------------------------------------
2.-------------------------------------------
3.-----5-5-5--5-5-5--5-5-5--0-1--1-1-1--1-1-1
4.-3-5---------------------------------------
5.-------------------------------------------
6.-------------------------------------------


1.---------------------------------------
2.---------------------------------------
3.-1-1-1--3-1--0-0-0--0-0-0--0-0-0----0--
4.----------------------------------3----
5.---------------------------------------
6.---------------------------------------


1.---------------------------------------
2.---------------------------------------
3.-0-0-0--0-0-0--0-0-0------5-5-5--5-5-5-
4.----------------------3-5--------------
5.---------------------------------------
6.---------------------------------------


1.--------------------------------------
2.-------------------------------------
3.-7-7-7--0-1--1-1-1--1-1-1--1-1-1--3-1-
4.--------------------------------------
5.--------------------------------------
6.--------------------------------------

1.-----------------
2.-----------------
3.---0-0-0--0-0-0--
4.-----------------
5.-----------------
6.----------------...

Más tablaturas de... Primordial.

No hay comentarios:

Publicar un comentario en la entrada