.

banners

Tabs fácil de...Cold Blood. Apocalyptica.


  Vamos a rizar el rizo en Tablaturas fáciles publicando un cover de Apocalyptica, una banda que rompiera esquemas cuando se presentara ante el mundo con esa manera de interpretar temas de Metallica con sus violonchelos y que después de casi 20 años nos volvía  a presentar disco nuevo. "Shadowmaker" llevaba por título y salía a mediados de Abril del año pasado.
  Uno de los adelantos del disco era este "Cold blood" del que os he dejado unos momentos en tablatura de mi personal cover del tema que espero que os guste y lo disfrutéis.
 Un saludo.
 TabsFácil.






Cold blood. Apocalyptica.

1.---6-3--6-3--6-3-------6-3--6-3--6-3-------
2.------------------3-4------------------3-4-
3.-------------------------------------------
4.-------------------------------------------
5.-------------------------------------------
6.-------------------------------------------

1.---6-3--6-3--6-3-------6-3--6-3--6-3-------

2.------------------3-4------------------3-4-
3.-------------------------------------------
4.-------------------------------------------
5.-------------------------------------------
6.-------------------------------------------

1.-------------------------------------------

2.-------------------------------------------
3.-------------------------------------------
4.-------------------------------------------
5.---6-6-6---3-3-3---8h10---------------8h10-
6.---4-4-4---1-1-1--------8-8--8-8-8-8-------

1.-------------------------------------------

2.-------------------------------------------
3.-------------------------------------------
4.-------------------------------------------
5.------------------6-6-6---3-3-3---8h10-----
6.---8-8--8-8-8-8---4-4-4---1-1-1--------8-8-

1.-------------------------------

2.-------------------------------
3.-------------------------------
4.-------------------------------
5.------------8h10---------------
6.---8-8-8-8-------8-8--8-8-8-8--

1.-------------------------------------------

2.-------------------------------------------
3.-------------------------------------------
4.-------------------------------------------
5.-------------------------------------------
6.-4-4-4--4--4-4-4-4--4-4-4--4--4-4-4-4-3-3-3

1.-------------------------------------------

2.-------------------------------------------
3.-------------------------------------------
4.-------------------------------------------
5.------------3-3-3-3-6-6-6-6-5-5-5-5-6-6-6-6
6.-3--3-3-3-3--------------------------------

1.-------------------------------------------

2.-------------------------------------------
3.-------------------------------------------
4.-------------------------------------------
5.-------------------------------------------
6.-4-4-4--4--4-4-4-4--4-4-4--4--4-6-4-3--3-3-

1.-------------------------------------------

2.-------------------------------------------
3.-------------------------------------------
4.---------------5-5-5-5-8-8-8-8-6-6-6-6-5-5-
5.-------------------------------------------
6.-3--3--3-3-3-3-----------------------------

1.-----------------

2.-----------------
3.-----------------
4.---5-5-----------
5.-------6-6-6-6---
6.-----------------...



Más tablaturas de... Apocalyptica.

No hay comentarios:

Publicar un comentario en la entrada