.

banners

Tabs fácil de ... Walking on water. Jorn Lande/Trond Holter.





 Jorn Lande y el guitarrista Trond Holter nos embarcaban hace tiempo en una ópera rock dedicada al mítico personaje de Drácula. Un álbum del que podríamos destacar, sin duda el tema "Walking on water" que utilizaron como adelanto del disco y del que hoy os dejo unos momentos en tablatura fácil para que disfrutéis y practiquéis con el sonido de estos grandes del género.
  Un saludo.
  TabsFácil.




Walking of water. Jorn lande y Trond Holter.

1.-------------------------------------------
2.-------------------------------------------
3.-------------------------------------------
4.----------7-6-------------7-6----------7-6-
5.-4-6-7--4-----7-6---7-6-4-----4-6-7--4-----
6.-------------------------------------------

1.------------------------------

2.------------------------------
3.-------------(HH)-------------
4.--4----6----7-6----6--6-6-6-6-
5.----7----9---------4--4-4-4-4-
6.------------------------------...




1.---7-9--11-9--7h9h7----7-------------------

2.-9------------------9---/9-----5-7-7--7/9\7
3.----------------------------/6-------------
4.-------------------------------------------
5.-------------------------------------------
6.-------------------------------------------

1.----------------

2.--5h7h5---------
3.--------6--4-6--
4.----------------
5.----------------
6.----------------...
Más tablaturas de... Jorn Lande.

No hay comentarios:

Publicar un comentario