.

banners

Tabs fácil de... The vengeful one. Disturbed.




   La Tablatura fácil de hoy corresponde al tema "The vengeful one" de Disturbed, perteneciente al disco"Immortalized," el último hasta la fecha, salió en Agosto del año pasado y era la octava obra de la banda después de 4 años de espera. 
   Disturbed nos anunciaba  que ya tenía disco preparado y lo hacía, lanzando un single "The vengeful one", un temazo que no hacía otra cosa que darnos mas ganas de escuchar  el disco completo.
    Os quiero dejar como siempre, un momento en tablatura del tema, en concreto mi interpretación del riff principal que, como siempre, espero que os guste y disfrutéis.
   Un saludo.
   TabsFácil.









The vengeful one. Disturbed.

(0:28)
1.-----------------------------------|
2.-----------------------------------|
3.------------2-----------5-4-2------|
4.---4-5-4--2--2--2-5-4-4--------2h4-|
5.-----------------------------------|
6.-----------------------------------|

1.-----------------------------------|

2.-----------------------------------|
3.--2---------2-----5-5-5-5-5-5-5-5--|
4.----5-4-4--2-2--2------------------|
5.-----------------------------------|
6.-----------------------------------|

1.--------------------|

2.--------------------|
3.--2-2-2-2-2-2-------|
4.--------------2-2-2-|
5.--------------------|
6.------------------...


Más tablaturas de... Disturbed.

No hay comentarios:

Publicar un comentario en la entrada