.

banners

Tabs fácil de... Until the end of days.




  La banda Stratovarius lanza este mes de Mayo un recopilatorio con sus grandes éxitos y algún que otro tema nuevo, como este "Until the end of days" del que ya lanzara un lyric video y del que os quiero dejar unos momentos en tablatura del riff principal.
  Stratovarius en Tablaturas fáciles.
  Un saludo.
  TabsFácil.


  


Until the end of days. Stratovarius.

1.---------------------------------------|
2.---------------------------------------|
3.---------------------------------------|
4.-10-9-7----7-5-3----------------9-7----|
5.--------7--------3--5h7h8-7-5-------10-|
6.------------------------------5--------|

1.---------------------------------------|

2.--------------------------------(HH)---|
3.---------------------------------5-----|
4.-7h9h10-9-7----7-5-3----5-4-2-------7-5
5.------------7--------3--------2--------|
6.-

1.-------|

2.-------|
3.-------|
4.-------|
5.--5--7-|
6.--3--5-|...


Más tablaturas de... Stratovarius.

No hay comentarios:

Publicar un comentario