.

banners

Tabs fácil de... Stranded. Gojira.


  En Tablaturas fáciles hoy, una de las mejores bandas del panorama metalero internacional y la mejor seguramente que ha salido de la escena francesa en los últimos tiempos.
  Gojira presentarán en Junio "Magma" álbum con el que cortan su sequía de cuatro años y para ello, ya han lanzado adelanto, del que os quiero dejar unos momentos en tablatura, se llama "Stranded" y espero que os guste y disfrutéis.
  Un saludo.
  TabsFácil.





Stranded. Gojira.

 (1:06)

1.-----------------------------------|
2.-----------------------------------|
3.---------7-7-7-7---5-5-5-----------|
4.-8-8-8---5-5-5-5---3-3-3---7-7-7-7-|
5.-6-6-6---------------------5-5-5-5-|
6.-----------------------------------|

1.-----------------------------------|
2.-----------------------------------|
3.---------7-7-7-7---5-5-5-----------|
4.-8-8-8---5-5-5-5---3-3-3---7-7-7-7-|
5.-6-6-6---------------------5-5-5-5-|
6.-----------------------------------|

    ...don’t lock the door on me
1.-----------------------------------|
2.-----------------------------------|
3.---------7-7-7-7---5-5-5-----------|
4.-8-8-8---5-5-5-5---3-3-3---7-7-7-7-|
5.-6-6-6---------------------5-5-5-5-|
6.-----------------------------------|


...you’d kill me, face down, dead
1.-----------------------------------|
2.-----------------------------------|
3.---------7-7-7-7---5-5-5-----------|
4.-8-8-8---5-5-5-5---3-3-3---7-7-7-7-|
5.-6-6-6---------------------5-5-5-5-|
6.-----------------------------------|


...another part of me falls for you
1.-----------------------------------|
2.-----------------------------------|
3.---------7-7-7-7---5-5-5-----------|
4.-8-8-8---5-5-5-5---3-3-3---7-7-7-7-|
5.-6-6-6---------------------5-5-5-5-|
6.-----------------------------------|

  (2:32)
1.-----------------------------------|
2.-----------------------------------|
3.-----------------------------------|
4.-8-8-8-8-8-8-8-8-8-7-7-7-7-7-7-7-7-|
5.-----------------------------------|
6.-----------------------------------|

1.-----------------------------------|
2.-----------------------------------|
3.-5/7-7-7-7-7-7-7-7-7--7/8-8-8-8-8-8
4.-----------------------------------|
5.-----------------------------------|
6.-----------------------------------|

1.-----------------------------------|
2.-----------------------------------|
3.-----------------------------------|
4.-8-8-8-8-8-8-8-8-8-7-7-7-7-7-7-7-7-|
5.-----------------------------------|
6.-----------------------------------|

1.-----------------------------------|
2.-----------------------------------|
3.-5/7-7-7-7-7-7-7--5--7/8-8-8-8-8-8-|
4.-----------------------------------|
5.-----------------------------------|
6.-----------------------------------|

    ...don’t lock the door on me
1.-----------------------------------|
2.-----------------------------------|
3.---------7-7-7-7---5-5-5-----------|
4.-8-8-8---5-5-5-5---3-3-3---7-7-7-7-|
5.-6-6-6---------------------5-5-5-5-|
6.-----------------------------------|


...you’d kill me, face down, dead
1.-----------------------------------|
2.-----------------------------------|
3.---------7-7-7-7---5-5-5-----------|
4.-8-8-8---5-5-5-5---3-3-3---7-7-7-7-|
5.-6-6-6---------------------5-5-5-5-|
6.-----------------------------------|


...another part of me falls for you
1.-----------------------------------|
2.-----------------------------------|
3.---------7-7-7-7---5-5-5-----------|
4.-8-8-8---5-5-5-5---3-3-3---7-7-7-7-|
5.-6-6-6---------------------5-5-5-5-|
6.-----------------------------------|





Más tablaturas de...Gojira.

No hay comentarios:

Publicar un comentario en la entrada