.

banners

Tabs fácil de... Spiral. Eric Clapton.




  El 20 de Mayo ya teníamos por fin un más que esperado disco, "I still do" de Eric Clapton, del que no podían faltar en tablaturas fáciles algún que otro momento en tablatura. Hoy os dejo unos momentos en tabs fácil del inicio del tema "Spiral" que está utilizando para presentar el trabajo.
  Un saludo.
  TabsFácil.






Spiral. Eric Clapton.

1.--------------------------------------|
2.--------------------------5-3---------|
3.---------5(6)---------------------7-6-|
4.-----5h7------7-5-7------------/7-----|
5.-5/7------------------/7--------------|
6.--------------------------------------|

1.--------------------------------------|
2.-------------------------5-3----------|
3.-7(9)(7)-7-6---------------------7-6--|
4.-------------7h5h7------------/7------|
5.---------------------/7---------------|
6.--------------------------------------|

1.--------------------------------------|
2.--------------------------------------|
3.---------5/7--5------5-------5--------|
4.-----5-7--------7--------5h7---7--5---5
5.-5/7--------------------------------7-|
6.--------------------------------------|

1.--------------------------------------|
2.------5-------------------------------|
3.----5---5-7(9)(7)-5-----5-7--5--------|
4.-/7------------------/7--------5(7)(5)
5.--------------------------------------|
6.--------------------------------------|

1.-----------------------|
2.-----------------------|
3.-------------------5---|
4.---------5----5------7-|
5.-7---5/7---7----7------|
6.-----------------------|...




Más tablaturas de... Eric Clapton.

1 comentario:

  1. está muy bueno poder contar con estas ayudas que son muy útiles a la hora de armar estos temas

    ResponderEliminar