.

banners

Tabs fácil de... Never Stop Believing. Ted Nugent.




  Ya ni me acuerdo los años que tenía cuando llegó a mis manos un disco de este hombre, y desde entonces me cautivó. Aunque cuando quedé prendado de su estilo fué con los Damn Yankees. Para mí un grande Ted Nugent, del que no podía faltar una tablatura en mmi blog, y la verdad que el título de la canción viene ni que pintada si hecho la vista atrás a cuando lo escuché por primera vez y empecé a soñar con tocar la guitarra.
  "Never stop believing" en Tablaturas fáciles.
   Un saludo. 
   TabsFácil.





Never Stop Believing. Ted Nugent.



(0:30)
1.--------------------------------------------------
2.--------------------------------------------------
3.--------------------------------------------------
4.-----2---5-2----------------------------0---------
5.-3-3---3----------2---5-3h5h3---0-0-3-0---3-3h5h3-
6.--------------3-3---3-----------------------------

1.---------------
2.---------------
3.---------------
4.-----------0---
5.-------3-----3-
6.---1-1---1----. . .


(0:42)
1.--------------------1---------------
2.-----------/3-3-1-------------------
3.------------------2-----------------
4.-5-------2--------------------------
5.-3---5---0------------------3h5h3---
6.-----3------------------3/5-------5-. . .



(0:52)
1.---------------------------------------------
2.---------------------------------------------
3.-7(9)(7)(9)(7)(9)---5h7h5/4---7(9)-7-5-7-5---
4.-------------------------------------------9-
5.---------------------------------------------
6.---------------------------------------------


1.-----------------------------------------------
2.--------20--------20-17------------------------
3.-19(21)----19(21)-------19-17-19---19-17-21-21-
4.-----------------------------------------------
5.-----------------------------------------------
6.-----------------------------------------------


1.--------------------
2.-------------20(22)-
3.---17-19------------
4.---------19---------
5.--------------------
6.--------------------



(1:05)
1.-----------------------------------------------
2.-----------------------------------------------
3.------/4h5h4h5--------/4h5h4h5--------/4h5h4h5-
4.-5-5-------------------------------------------
5.-3-3-------------5-5-------------7-7-----------
6.-----------------3-3-------------5-5-----------

                          
1.-------------------   
2.-------------------   
3.--------/5-4h5h4---   
4.-----------------5-   
5.---3-3-------------   
6.---1-1-------------   

(1:33)
 1.-----------------------------------
 2.-----------------------------------
 3.-----------------------------------
 4.---5-------------------------------
 5.---3-x-x-x-x-5---------2---------3-
 6.-------------3-x-x-x-x-0-x-x-x-x-1-


Más tablaturas de... TEd Nugent.

No hay comentarios:

Publicar un comentario en la entrada