.

banners

Tabs fácil de... Morrigan. Children of Bodom.



  Otro de los grupos que no podíamos para por alto en tablaturas fáciles, es sin duda, Children of bodom, que, desde hace unos meses tiene nuevo trabajo en la calle, se llama "I worship chaos" y aunque no he tenido el gusto todavía de escucharlo íntegro, tiene muy buena pinta. 
 Si he escuchado el tema con el que presentaban el disco y videoclip "Morrigan" y es de éste del que os quiero dejar unos momentos en tablatura, en concreto del riff principal o de inicio del tema.
  Espero como siempre que os guste como ha quedado y que lo disfrutéis. 
  Un saludo.
  Tabs Fácil.









Morrigan. Children of bodom.

1.--------------------------------
2.--------------------------------
3.--------8-------9---------------
4.--------6-------7-------6-4-----
5.--4-4-4---4-4-4---4-4-4-----7-6-
6.--------------------------------


1.--------------------------------
2.--------------------------------
3.---------------8-------9--------
4.---------------6-------7--------
5.--4-6-7--4-4-4---4-4-4---4-4-4--
6.--------------------------------


1.--------------------------------
2.--------------------------------
3.----------------8-------9-------
4.----------------6-------7-------
5.--7-6-4---4-4-4---4-4-4---4-4-4-
6.--------7-----------------------


1.--------------------------------
2.--------------------------------
3.--------------------------------
4.--6-4--------------7-6-4---7-6-4
5.------7-6--4-6-7---------7------
6.-----------------5--------------


1.--------------
2.--------------
3.--------------
4.----7-6-4-----
5.--7-------7-6-
6.--------------

1.--------------------------------
2.--------------------------------
3.--------8-------9---------------
4.--------6-------7-------6-4-----
5.--4-4-4---4-4-4---4-4-4-----7-6-
6.--------------------------------


1.--------------------------------
2.--------------------------------
3.---------------8-------9--------
4.---------------6-------7--------
5.--4-6-7--4-4-4---4-4-4---4-4-4--
6.--------------------------------


1.--------------------------------
2.--------------------------------
3.----------------8-------9-------
4.----------------6-------7-------
5.--7-6-4---4-4-4---4-4-4---4-4-4-
6.--------7-----------------------


1.--------------------------------
2.--------------------------------
3.--------------------------------
4.--6-4--------------7-6-4---7-6-4
5.------7-6--4-6-7---------7------
6.-----------------5--------------


1.--------------------------
2.--------------------------
3.----------------9-8-6---6-
4.----7-6-4-------------9---
5.--7-------7-6-------------
6.--------------------------...


Más tablaturas de...

No hay comentarios:

Publicar un comentario