.

banners

Tabs fácil de... Dark necessities. Red Hot Chili Peppers.



  En Tablaturas fáciles queremos presentarte lo que será el nuevo y esperado trabajo de Red Hot Chili Peppers, que saldrá a mediados de Junio bajo el nombre de "The Getaway."
   Ya contamos, como no, con adelanto y con tabs fácil del tema, "Dark necessities" con la que esperamos que disfrutéis y practiquéis al más puro estilo de los R.H.CH.P.
   Un saluto.
   TabsFácil.




Dark necessities. Red Hot Chili Peppers.

  (4:03) Solo.

1.-11-11--10-10--8-8-----------------|
2.--------------------11-11--6h8-8-8-|
3.-----------------------------------|
4.-----------------------------------|
5.-----------------------------------|
6.-----------------------------------|

1.-----------------------------------|
2.-----------------------------------|
3.-8h10-10-10------------------------|
4.------------8h10-10-10-------------|
5.-----------------------8h10-10-10--|
6.-----------------------------------|

1.------------------|
2.------------------|
3.------------------|
4.------------------|
5.-6h8-8-8----------|
6.---------6h8-8-8--|


1.-11-11--10-10--8-8-----------------|
2.--------------------11-11--6h8-8-8-|
3.-----------------------------------|
4.-----------------------------------|
5.-----------------------------------|
6.-----------------------------------|

1.-----------------------------------|
2.-----------------------------------|
3.-8h10-10-10------------------------|
4.------------8h10-10-10-------------|
5.-----------------------8h10-10-10--|
6.-----------------------------------|

1.------------------|
2.------------------|
3.------------------|
4.------------------|
5.-6h8-8-8----------|
6.---------6h8-8-8--|


1.-11-11--10-10--8-8-----------------|
2.--------------------11-11--6h8-8-8-|
3.-----------------------------------|
4.-----------------------------------|
5.-----------------------------------|
6.-----------------------------------|

1.-----------------------------------|
2.-----------------------------------|
3.-8h10-10-10------------------------|
4.------------8h10-10-10-------------|
5.-----------------------8h10-10-10--|
6.-----------------------------------|

1.------------------|
2.------------------|
3.------------------|
4.------------------|
5.-6h8-8-8----------|
6.---------6h8-8-8--|


1.-11-11--10-10--8-8-----------------|
2.--------------------11-11--6h8-8-8-|
3.-----------------------------------|
4.-----------------------------------|
5.-----------------------------------|
6.-----------------------------------|

1.-----------------------------------|
2.-----------------------------------|
3.-8h10-10-10------------------------|
4.------------8h10-10-10-------------|
5.-----------------------8h10-10-10--|
6.-----------------------------------|

1.------------------|
2.------------------|
3.------------------|
4.------------------|
5.-6h8-8-8----------|
6.---------6h8-8-8--|



1.-----------------------------------|
2.-----------------------------------|
3.-----------------------------------|
4.-----------------------------------|
5.---------------10-8-10-8-10--------|
6.-8--8-8-8--8-8--------------8--8-8-|

1.-----------------------------------|
2.-----------------------------------|
3.-----------------------------------|
4.-----------------------------------|
5.--------10-8-10-10-10--------------|
6.-8--8-8---------------8h10-8h10-8--|...





Más tablaturas de... REd Hot Chili Peppers.

No hay comentarios:

Publicar un comentario