.

banners

Tabs fácil de... A celebration. Joe Satriani.


  Creo que ya lo he dicho alguna vez aquí en tabs fáciles,. aún así lo repito, para mí está Joe Satriani y luego a mucha distancia todos los demás y seguro que no os tengo que explicar por qué. No son más que gustos como todo en la vida. 
  El caso que aquí os dejo un pedacito de tablatura fácil de otro temazo de este grande, en este caso de su penúltimo álbum, lanzado allá por el 2013
  Un saludo. 
  TabsFácil.





                 

 A celebration. Satriani.


1.------------------------------------------------
2.-----8-8---10-8/5----8/10\8---------------------
3.-7(9)-------------/9--------7/5---7/5-5---------
4.----------------------------------------10h9h10-
5.------------------------------------------------
6.------------------------------------------------

1.----------7h8-8h10-10h12-8-----------------------
2.-----8h10-------------------12-12-13-13----------
3.-7h9------------------------------------9-9-10-10
4.-------------------------------------------------
5.-------------------------------------------------
6.--------------------------------------------. . .

(0:52)
1.--------------------------------------------
2.-----10----/12-12-12--------------10-8------
3.-/10----10-----------/12------/10------10---
4.-------------------------/14----------------
5.--------------------------------------------
6.--------------------------------------------


1.---------------------------------------------
2.-------8------/10----/12-12-12-13------------
3.-7-7(9)---/10-----10--------------12---/10---
4.---------------------------------------------
5.---------------------------------------------
6.---------------------------------------------

1.---------------------------
2.-------------------15-13---
3.---/12---/14---/17---------
4.---------------------------
5.---------------------------
6.-------------------------. . .


(1:34)
1.-20-20---19-19---17-17---15-15---13-13---12-12-
2.-----------------------------------------------
3.-----------------------------------------------
4.-----------------------------------------------
5.-----------------------------------------------
6.-----------------------------------------------

1.---10-10---8-8---
2.-----------------
3.-----------------
4.-----------------
5.-----------------
6.----------------. . .

Más tablaturas de... Joe Satrini.

No hay comentarios:

Publicar un comentario en la entrada