.

banners

Tabs fácil de... At dawn's first light. Amon Amarth.


  Pedazo de disco se han marcado los Amon Amarth, como no podía ser de otra manera. Tengo que reconocer que siento especial predilección por esta banda, sobre todo por el sonido de sus guitarras y quizás sea por eso por lo que os quiero dejar unos momentos en tablatura fácil de la banda.
  Hoy en Tablaturas fáciles "At dawn's first light" un temazo del último trabajo de amon Amarth.
  Que lo disfrutéis.
  Un saludo.
  TabsFácil.




 

At dawn's first light. Amon Amarth.

(0:41)
1.----------------------------|
2.-10(12)-10(12)-10-8--12(13)-|
3.----------------------------|
4.----------------------------|
5.----------------------------|
6.----------------------------|

1.------------------------|

2.-10(12)-10(12)-10-------|
3.------------------11-12-|
4.------------------------|
5.------------------------|
6.------------------------|

1.---------------------------------------|

2.---------------------------------------|
3.---------------------------------------|
4.--------2h1h2--------5h4h5-------4h2h4-|
5.---------------------------------------|
6.-0-0-0--------0-0-0--------0-0-0-------|


1.---------------------------------------|

2.---------------------------------------|
3.---------------------------------------|
4.--------5h4h5-------2h1h2--------5h4h5-|
5.---------------------------------------|
6.-0-0-0--------0-0-0--------0-0-0-------|


1.----------------------------|

2.----------------------------|
3.-------0---0----------0-----|
4.-2-1-2---4----2-1-2-4---4-2-|
5.----------------------------|
6.----------------------------|...

 (3:07)

1.--------------------------------------|
2.--------------------------------------|
3.-----------4-4(5)---------------------|
4.----4-5--7----------------------------|
5.-/7----------------7--7-9-10--9-10-12-|
6.--------------------------------------|


1.-----------------------------------------|

2.---------------/5--7-8--8(10)(8)-7-5-7-8-|
3.-----------------------------------------|
4.-/12-10----9-----------------------------|
5.--------12-------------------------------|
6.-----------------------------------------|

1.--------10-8----7--7-7-7---------------7-|

2.-7-8-10------10----------8-7-5-5-5-7-8---|
3.-----------------------------------------|
4.-----------------------------------------|
5.-----------------------------------------|
6.-----------------------------------------|

1.-7-7---------------10-10-10-8-7----------|

2.-----8-7-5-5-5-7-8--------------10-10-10-|
3.-----------------------------------------|
4.-----------------------------------------|
5.-----------------------------------------|
6.-----------------------------------------|

1.-7-8-10-10-10-8-7----------|

2.------------------10-10-10-|
3.---------------------------|
4.---------------------------|
5.---------------------------|
6.---------------------------|...


Más tablaturas de... Amon Amarth.

No hay comentarios:

Publicar un comentario