.

banners

Tabs fácil de... All there was. Queensrÿche.



 No podíamos pasar por alto en tablaturas fáciles "Condition hüman" un disco que entró de lleno en numerosas listas de éxitos de todo el mundo, en sus primeras semanas de ver la luz. 
  Un disco que rebosa riffs al más puro estilo "Queensrÿche" y que desde los primeros instantes del disco comienzan a aparecer.
  "All there was" otro de esos temas con la marca inconfundible de la banda, del que hoy os quiero dejar unos momentos en tablatura.
   Un saludo.
   TabsFácil.





All there was. Queensrÿche.

1.----------------------------------
2.----------------------------------
3.----------------------------------
4.----5---6---5---4---5---6---5---4-
5.--3---3---3---3---3---3---3---3---
6.-------------------------------...

  (0:18)          (HH)
1.-----3---4---3---2-
2.-------------------
3.--/5---5---5---5---
4.-------------------
5.-------------------
6.------------------...

  (0:22)Guitarra 1.
1.---------------------------------
2.---------------------------------
3.---------------------------------
4.-----5-----6-----5-----3-----3-5-
5.-3-3---3-3---3-3---3-3---3-3-----
6.---------------------------------

1.----------------------------------
2.----------------------------------
3.------------------3---------------
4.-----5-----6------------6-----3-5-
5.-3-3---3-3---3-3----3-3---3-3-----
6.----------------------------------

1.---------------------------------
2.---------------------------------
3.---------------------------------
4.-----5-----6-----5-----3-----3-5-
5.-3-3---3-3---3-3---3-3---3-3-----
6.---------------------------------

1.-----------------------------------
2.-----------------------------------
3.-----------------------------------
4.-------------------5-----6-5-------
5.-----5-----6---------6-5-----6-5--3
6.-3-3---3-3---3-3-3----------------...

   (0:22)Guitarra 2.

1.-----10-11--11(13)(11)----10--------
2.-/13-------------------13----11-/8-8
3.------------------------------------
4.------------------------------------
5.------------------------------------
6.------------------------------------

1.-----------------------------------
2.----18-20--20(21)(20)--21-20-18-20-
3.-20--------------------------------
4.-----------------------------------
5.-----------------------------------
6.-----------------------------------


1.-----------------------------------
2.-18----18--------------------------
3.----20----20-19-20-19-17-19-17-----
4.-------------------------------20--
5.-----------------------------------
6.-----------------------------------


1.-----------------------------
2.-----------------------------
3.--17-------------------------
4.-----20-18-20-18-17-18-17----
5.--------------------------20-
6.-----------------------------...


Más tablaturas de... Queensrÿche.

No hay comentarios:

Publicar un comentario en la entrada