.

banners

Tablatura fácil de... Blast off. David Guetta.




  Una tablatura fácil de un tema de David Guetta al más puro estilo "Ain't talk about love" de Van Halen, de hecho creo haber escuchado en Youtube alguna versión en directo del tema con el mismo riff.
   El caso es que he intentado sacar mi propia versión del riff tan característico y aquí os la dejo en formato tabs.
   Espero que os guste y que la disfrutéis.
   Un saludo.
   TabsFácil.






Blast off. David Guetta feat Kaz James.


1.------------------------------------------------
2.---------4-----5-----5---5----------------4-----
3.-----3-4---4-3---6-6---6---6-4-3------3-4---4-3-
4.------------------------------------------------
5.---6--------------------------------6-----------
6.-4--------------------------------4-------------


1.-------------------------
2.---5-----5---7-----------
3.-----6-6---6---6---3---6-
4.------------------(HH)---
5.-------------------------
6.-------------------------


Más tablaturas de... David Guetta.

No hay comentarios:

Publicar un comentario en la entrada