.

banners

Tablatura fácil de...Way to the sun. Revolution saints.



 Cuando encontré este grupo y escuché por primera vez la canción pensé: "Ya están aquí de nuevo los Damn Yankees" y aunque al ver que no eran ellos me decepcioné un poquito, no hay nada como ver el curriculum de los miembros para que se te pase, incluso en este tema colabora ni más ni menos que Neal Schon.
  Grupazo en definitiva y muchas ganas de escuchar a Jack Blades que por una cosa u otra todavía no había escuchado en sus anteriores proyectos...
  Os dejo un momento en tablatura fácil del tema que espero que os guste y lo disfrutéis.
  Un saludo.
  TabsFácil.







Way to the sun. Revolution saints.

1.------------------------------------
2.------------------------------------
3.---------4-5--------4-5--------4-5--
4.-------7----------5----------5------
5.-----7----------5----------3--------
6.---5----------3----------1----------

1.--------------------
2.--------------------
3.------5-4-----------
4.--------------------
5.--------------------
6.---3-------3-0--7-5-

1.------------------------------------
2.--------------------------------3---
3.---------4-5--------2-4-------------
4.-------7----------5----------5------
5.-----7----------5----------5--------
6.---5----------3----------2----------

1.-----------------------
2.-----------------------
3.---------4--2--4h5h4h2-
4.-------5---------------
5.-----3-----------------
6.---1-------------------...


Más tablaturas de...Revolution Saints.

No hay comentarios:

Publicar un comentario en la entrada