.

banners

Tablatura fácil de...Spot Intimissimi. Irina Shayk.


   Desde la sección "Pide tu Tabs" me solicitan la tablatura fácil de este sugerente riff, mucho más si cabe cuando uno ve con qué imágenes va acompañado...
  El video en cuestión forma parte de la nueva campaña de la marca  de lencería Intimissimi y la modelo no es otra que Irina Shayk, más conocida como la novia de Cristiano Ronaldo...
   Un saludo.
   TabsFácil.








Spot Intimissimi.

1.---------------------------------------|
2.---------------------------------------|
3.-5(7)(5)-3----5(7)(5)-3----5(7)(5)-3-5-|
4.-----------5------------5--------------|
5.---------------------------------------|
6.---------------------------------------|

1.---------------------------------------|

2.---------------------------------------|
3.-5(7)(5)-3----5(7)(5)-3----5(7)(5)-3---|
4.-----------5------------5------------5-|
5.---------------------------------------|
6.---------------------------------------|

1.---------------------------------------|

2.---------------------------------------|
3.-5(7)(5)-3-5---5(7)(5)-3---------------|
4.-------------------------5-------------|
5.-----------------------------/5-5---3-5
6.----------------------------------6----|

1.----------------------------------------|

2.----------------------------------------|
3.----------------------------------------|
4.-----------3-5-----------------------3-5
5.-3-------5------/5-5---3-5-3-------5----|
6.---6-3-3-------------6-------6-3-3------|

1.--------------|

2.--------------|
3.--------------|
4.-----------3--|
5.----1-3-1--3--|
6.-/3--------1--|




Más tablaturas de... Spot de T.V.

No hay comentarios:

Publicar un comentario