.

banners

Tablatura fácil de...Rusty. Loquillo.


   El segundo sencillo del nuevo trabajo de Loquillo, "Viento del este," ya está en la calle, se llama "Rusty" y es precisamente del tema en cuestión del que os quiero dejar un momento en tablatura fácil para que disfrutéis si sois seguidores de este singular personaje de la música española.
  Un saludo.
  TabsFácil.





Rusty. Loquillo.

(0:08)
1.-----------------------------------|
2.-----------------------------------|
3.-----------------------------------|
4.-5---------------------------------|
5.-3--5-7-5-3-----3--3--5-7-5-3-----3
6.------------5-5---------------5-5--|

1.----------------------------------|
2.----------------------------------|
3.----------------------------------|
4.-5--------------------------------|
5.-3--5-7-5-3-----3--3--5-7-5-3-----|
6.------------5-5---------------5-5-|...



Más tablaturas de... Loquillo.

No hay comentarios:

Publicar un comentario