.

banners

Tablatura fácil de...Lovers on the sun. David Guetta feat Sam Martin.



 Al mas puro estilo de los Spaghetti western. Con este tema (con el vídeo mejor dicho) David Guetta nos sumerge en el más profundo oeste americano. 
   He querido rescatar algunos momentos a modo de riffs en tablatura para que los disfrutéis y aprendáis a tocar la guitarra mientras escuchais música que por otra parte no tiene nada que ver con el mundo de la guitarra, todo hay que decirlo. (Los acordes que suenan sobre el minuto más o menos creo que suenan en Si menor).
  Un saludo.
  TabsFácil.




Lovers on the sun. David Guetta feat Sam Martin.


(0:19)
1.-----------------------------------------------
2.-----------------------------------------------
3.---4---4---4-6-7---9-7-6-------------4---4---4-
4.-4---4---4---------------9-7---9---4---4---4---
5.-----------------------------------------------
6.-----------------------------------------------

1.-------------------------
2.-------------------------
3.---6-7---9-9h7h7---------
4.-----------------9-7---9-
5.-------------------------
6.-------------------------



(1:21)(Sintetizador)
1.-------------------------------------------
2.-------------------------------------------
3.----------------7-7-7h6-7-9-11---11h9h7h---
4.-9-9-9h11h9--11--------------------------9-
5.-------------------------------------------
6.-------------------------------------------. . .


Más tablaturas de...

No hay comentarios:

Publicar un comentario en la entrada