.

banners

Tablatura fácil de...Cry thunder. Dragonforce.


  Del quinto álbum de estudio de la banda británica Dragonforce, que saliera allá por el 2012, hoy os presento un momento en tablatura fácil del tema "Cry thunder" con el que presentaran el disco en su día.
  La tabs fácil corresponde al primer riff del inicio y con ella tenéis la diversión asegurada.
  Un saludo.
  TabsFácil.





Cry thunder. Dragonforce.



1.---------------------------------5-------------
2.-7---5-7-8---7-8-7-5------5-7-8-----8-7-5------
3.---------------------7-9-------------------7-9-
4.-----------------------------------------------
5.-----------------------------------------------
6.----------------------------------------------- 

1.---------------------------------5-----------5-
2.-7---5-7-8---7-8-7-5------5-7-8-----8-7-5------
3.---------------------7-9-------------------7---
4.-----------------------------------------------
5.-----------------------------------------------
6.-----------------------------------------------


1.-----------------------------------------------
2.-----------------------------------------------
3.----------------------11-12-11-9---------------
4.-9-11-12-9-9-9--9-12-------------12-11-12-9-9-9
5.-----------------------------------------------
6.-----------------------------------------------


Más tablaturas de... Dragonforce.

No hay comentarios:

Publicar un comentario