.

banners

Tablatura fácil de...Butterfly and zebra. Joe satriani.




  En la tablatura fácil de hoy vamos a rescatar el último trabajo del gran Joe Satriani, que tituló  "Shockwave Supernova" y estaba repleto de temas al más puro estilo Satch. Para mí, sin duda, el más grande, el mejor guitarrista con este toque que consigue en cada tema, mezclando técnica y melodía de una manera increíble.
   Siempre tiene un espacio en sus discos para alguna joyita como la que hoy os presento, "Butterfly and zebra" un tema cortito pero que suena muy, pero que muy bien.
  En Tablaturas fáciles, Joe Satrini.
   Un saludo.
   TabsFácil.






Butterfly and zebra. Joe satriani.

1.-------------------------------------
2.----------10--8---------10--8--------
3.---12--10--------12--10-------12--10-
4.-------------------------------------
5.-------------------------------------
6.-------------------------------------

1.----------------------------------
2.--10--8---------------------------
3.--------10-12--12--10--9----9--10-
4.-------------------------12-------
5.----------------------------------
6.----------------------------------

1.-------------------------------------
2.----------10--8---------10--8--------
3.---12--10--------12--10-------12--10-
4.-------------------------------------
5.-------------------------------------
6.-------------------------------------

1.----------------------------------
2.--10--8---------------------------
3.--------10-12--12--10--9----9--10-
4.-------------------------12-------
5.----------------------------------
6.----------------------------------

1.-------------------------------------
2.--/13--10--10------------------------
3.--------------/12--11--11---12--12-12
4.-------------------------------------
5.-------------------------------------
6.-------------------------------------

1.-------------------------------------
2.----------10--8---------10--8--------
3.---12--10--------12--10-------12--10-
4.-------------------------------------
5.-------------------------------------
6.-------------------------------------

1.-------------------------------------
2.--10--8----------------------------13
3.--------10-12--12--10--9----9--10----
4.-------------------------12----------
5.-------------------------------------
6.-------------------------------------

1.---------------------------------
2.--13/15--13--13/15--13--10--8----
3.------------------------------10-
4.---------------------------------
5.---------------------------------
6.---------------------------------

1.-----------------------------
2.-----------------------------
3.--9h10h9h10h9h10h9h10h9h10h9-
4.-----------------------------
5.-----------------------------
6.-----------------------------...

Más tablaturas de... Joe Satrini.

No hay comentarios:

Publicar un comentario en la entrada