.

banners

Tablatura fácil de...Blancanieve. Sôber.


  "Letargo" es hasta la fecha el último trabajo de la banda Sôber, un disco con 12 temas en el que podemos encontrar el sonido tan peculiar de la banda...
  En Tablaturas fáciles hoy os quiero dejar unos momentos en tablatura del tema "Blancanieve" que sirviera en su día de presentación del disco.
  Un saludo.
  TabsFácil.






Blancanieve. Sober.

Guitarra solista.
1.-------------------------------------------
2.-------------------------------------------
3.---------------------------------4-------4-
4.-/4---/4---6h7-------/4-/4---6h7---7-6h7---
5.---------------5-5-------------------------
6.-------------------------------------------

1.-----------------------------------------
2.-----------------------------------------
3.-----------------------------------------
4.---6-6-6-4---6-6/7-7---6-6-6-4-2-2/4-4---
5.-----------------------------------------
6.-----------------------------------------


Guitarra rítmica
1.-----------------------------------------------
2.-----------------------------------------------
3.-----------------2-------2---------------------
4.-------------2---0-0-0-0-0---4---------------2-
5.-4-------4---0---------------2---4-------4---0-
6.-2-2-2-2-2-----------------------2-2-2-2-2-----


1.---------------------------------------------
2.---------------------------------------------
3.-2-------2-----------------------------------
4.-0-0-0-0-0---0-------------------------------
5.---------------4-2-0---2-------2---4-------4-
6.-----------------------0-0-0-0-0---2-2-2-2-2-

1.---------------------------
2.---------------------------
3.-------------------------2-
4.---0---------------------0-
5.-----4-2-0---2-------2-----
6.-------------0-0-0-0-0-----. . .

(2:38)

1.----------------------------------------------
2.----------------------------------------------
3.----9-7-6-----9-7-6-----6-4-2----6-4-2--------
4.-/7--------/7--------/4-------/4----------6-7-
5.----------------------------------------9---
6.----------------------------------------------



1.---------------------------------------------
2.---------------------------------------7h6h7-
3.-7h6h7--------9h7h9--------------6h5h6-------
4.----------6-7----------6-7-9-7-9-------------
5.--------9------------9-----------------------
6.---------------------------------------------



1.-9h7h9---7h5h7---5h4h5-4---------------------
2.-----------------------------------------9---
3.------------------------------9-11----11---9-
4.---------------------------11------11--------
5.---------------------------------------------
6.---------------------------------------------



1.--------------------------------------------------
2.-9-10----10-12-9---12-14-10---14-15-12---15-17-14-
3.------11------------------------------------------
4.--------------------------------------------------
5.--------------------------------------------------
6.--------------------------------------------------



1.----------------16-16(17)---17-16-14--------
2.-17-19-15---19-----------------------17(19)-
3.--------------------------------------------
4.--------------------------------------------
5.--------------------------------------------
6.--------------------------------------------



1.-----------------------T-----------T------------
2.-17(19)(17)---14h15h17-19-17h15h14--------------
3.-----------------------------------18-16h14h13h-
4.------------------------------------------------
5.------------------------------------------------
6.------------------------------------------------



1.----------T--------------17h16---------16-19-16----
2.-------------------------------17---17----------17-
3.—14h16-18-16h14h13——————————————-18----------------
4.---------------------16----------------------------
5.---------------------------------------------------
6.---------------------------------------------------



1.--------------------------------
2.--------------------------------
3.---18-16-14---------------7/6---
4.------------18-16---/4-/6-------
5.--------------------------------
6.-------------------------------- 

Más tablaturas de... Sôber.

No hay comentarios:

Publicar un comentario