.

banners

Tablatura fácil de... Walk on water. Kiske/Somerville.



   Hoy en tablaturas fáciles, el segundo tema con el que presentaban la vuelta al panorama musical el dúo Kiske/Somerville,  "Walk on water" del que os quiero dejar unos momentos en tablatura para que los disfrutéis y los incorporéis a vuestra práctica, entretenimiento, etc.
   Un saludo.
   TabsFácil.







"Walk on water". Kiske/Somerville.


  (0:19) Guitarra 2.


1.-----------8-7----------------------
2.---10---10-----10-8-10----------8---
3.------9----------------9--9-7-9---7-
4.------------------------------------
5.------------------------------------
6.------------------------------------

 
 (Guitarra 1)

1.------------------------------------
2.------------------------------------
3.------------------------------------
4.---------------------5--------------
5.---7------3----------3------------5-
6.---5------1-----------------------3-

  (Guitarra 2)

1.------------------
2.------------------
3.---7-7-7-9-7------
4.-------------10-7-
5.------------------
6.------------------


 
(Guitarra 1)

1.------------------
2.------------------
3.------------------
4.------------------
5.-------------3----
6.-------------1----

  (Guitarra 2)


1.-----------8-7----------------------
2.---10---10-----10-8-10----------8---
3.------9----------------9--9-7-9---7-
4.------------------------------------
5.------------------------------------
6.------------------------------------

  (Guitarra 1)

1.------------------------------------
2.------------------------------------
3.------------------------------------
4.---------------------5--------------
5.---7------3----------3------------5-
6.---5------1-----------------------3-

   (Guitarra 2)


1.-------------------
2.-------------------
3.---7-7-7-9-7-------
4.-------------10-10-
5.-------------------
6.-------------------...

 
 (Guitarra 1)

1.-------------------
2.-------------------
3.-------------------
4.-------------------
5.-------------3-----
6.-------------1-----...


  (2:18) Guitarra 1.


1.------------------------------------
2.------------------------------------
3.------------------------------------
4.---------------------5--------------
5.--5-5----7------3----3------5-----3-
6.--3-3-//-5------1-----------3-----1-

1.--------------------------------
2.--------------------------------
3.--------------------------------
4.-----------------5--------------
5.---7------3------3------5-----3-
6.---5------1-------------3-----1-


  (2:37)

1.---------------------------------
2.---------------------------------
3.---------------------------------
4.---7---5---2-------7---5---------
5.---5---3---0---5---5---3---3---5-
6.---------------3-----------1---3-

  (2:57) Solo

1.----------------------------------------
2.--------13-12(13)(12)-------------------
3.-----14---------------14-12-14(16)(14)--
4.--14----------------------------------14
5.----------------------------------------
6.----------------------------------------

1.----------------------------------------
2.--------13-12(13)(12)-------------------
3.-----14---------------14-12-14(16)(14)--
4.--14----------------------------------15
5.----------------------------------------
6.-------------------------------------...


Más tablaturas de... Kiske/Somerville.

No hay comentarios:

Publicar un comentario en la entrada