.

banners

Tablatura fácil de... Viento de cara. Supersubmarina.


   Supersubmarina presenta su disco "viento de cara" con el tema que lleva el mismo nombre y aquí en tabs fáciles os quiero dejar un momento en tablatura del inicio del tema para que practiquéis y disfrutéis si sois seguidores de la banda.
  Un saludo.
  TabsFácil.





Viento de cara. Supersubmarina.


1.--------------------------------------|
2.--------------------------------------|
3.--------------------------------------|
4.-7-7--7-7--7-7-7-7--------------------|
5.-------------------7-7--7-7--7-7--7-7-|
6.--------------------------------------|

1.---------------------------------|
2.---------------------------------|
3.---------------------------------|
4.-4-4-4-4-4-4-4-4-4-4-4-4-4-4-4-4-|
5.---------------------------------|
6.---------------------------------|

1.--------------------------------------|
2.--------------------------------------|
3.--------------------------------------|
4.-7-7--7-7--7-7-7-7--------------------|
5.-------------------7-7--7-7--7-7--7-7-|
6.--------------------------------------|

1.---------------------------------|
2.---------------------------------|
3.---------------------------------|
4.-4-4-4-4-4-4-4-4-4-4-4-4-4-4-4-4-|
5.---------------------------------|
6.---------------------------------|

1.--------------------------------------|
2.--------------------------------------|
3.--------------------------------------|
4.-7-7--7-7--7-7-7-7--------------------|
5.-------------------7-7--7-7--7-7--7-7-|
6.--------------------------------------|

1.-----------------------------------|
2.-----------------------------------|
3.-----------------------------------|
4.-4-4-4-4-4-4---4-4-4-4-4-4-4-4-4-4-|
5.-------------7---------------------|
6.-----------------------------------|

1.--------------------------------------|
2.--------------------------------------|
3.--------------------------------------|
4.-7-7--7-7--7-7-7-7--------------------|
5.-------------------7-7--7-7--7-7--7-7-|
6.--------------------------------------|

1.-----------------------------------|
2.-----------------------------------|
3.-----------------------------------|
4.-4-4-4-4-4-4---4-4-4-4-4-4-4-4-4-4-|
5.-------------7---------------------|
6.-----------------------------------|

1.--------------------------------------|
2.--------------------------------------|
3.--------------------------------------|
4.-7-7--7-7--7-7-7-7--------------------|
5.-------------------7-7--7-7--7-7--7-7-|
6.--------------------------------------|


1.-------------|
2.-------------|
3.--6-------7--|
4.--4---9---7--|
5.------7---5--|
6.-------------|...




Más tablaturas de... Supersubmarina.

No hay comentarios:

Publicar un comentario en la entrada