.

banners

Tablatura fácil de... Una lágrima. Rafa Blas.




 En Tablaturas fáciles recuperamos un disco del que hace ya más de un año que saliera al mercado, el segundo disco del ganador de la primera edición del popular concurso de T.V., Rafa Blas.
   "Sin mirar atrás" lleva por título y, os quiero presentar unos momentos en tablatura de uno de los temas del disco, en concreto el que lleva por título "Una lágrima" que espero que os guste como ha quedado y lo disfrutéis en el caso de que intentéis tocarlo.
  Un saludo.
  TabsFácil.





Una lágrima. Rafa Blas.

   (1:26)
1.--------------------------------------
2.-------------------10/12\10--10/12\8--
3.---/14---17/19-16---------------------
4.--------------------------------------
5.--------------------------------------
6.--------------------------------------

1.------------------------

2.---/6--/3--/5--/8--/10--
3.------------------------
4.------------------------
5.------------------------
6.----------------------...

Guitarra 1.(2:25)

1.-----------------------------------------
2.-----------------------------------------
3.-----------------------------------------
4.-----------------------------------------
5.---7-------------------------------------
6.---5-------------------------------------

  Guitarra 2. (2:25)

1.--/12-10-----------/12-10----------/13-12
2.---------13-12-13---------13-12-13-------
3.-----------------------------------------
4.-----------------------------------------
5.-----------------------------------------
6.-----------------------------------------

Guitarra 1.

1.-----------------------------------------
2.-----------------------------------------
3.-----------------------------------------
4.-----------------------------------------
5.---3-------------------------------------
6.---1-------------------------------------

Guitarra 2. 

1.--/12-10-----------/12-10----------/13-12
2.---------13-12-13---------13-12-13-------
3.-----------------------------------------
4.-----------------------------------------
5.-----------------------------------------
6.-----------------------------------------

Guitarra 1.

1.------------------------------------
2.------------------------------------
3.------------------------------------
4.---7--------------------------------
5.---5--------------------------------
6.------------------------------------

Guitarra 2. 

1.--/12-10----------------------------
2.---------13-12-13--13-12-10---------
3.-----------------------------12/14--
4.------------------------------------
5.------------------------------------
6.------------------------------------

Guitarra 1.

1.------------------------------------
2.------------------------------------
3.------------------------------------
4.---4--------------------------------
5.---2--------------------------------
6.------------------------------------

Guitarra 2. 
1.----------------------------
2.---12---13---12---13---12---
3.----------------------------
4.----------------------------
5.----------------------------
6.----------------------------

Guitarra 1.

1.-----------------------------------------
2.-----------------------------------------
3.-----------------------------------------
4.-----------------------------------------
5.---7-------------------------------------
6.---5-------------------------------------

  Guitarra 2. 

1.--/12-10-----------/12-10----------/13-12
2.---------13-12-13---------13-12-13-------
3.-----------------------------------------
4.-----------------------------------------
5.-----------------------------------------
6.-----------------------------------------

Guitarra 1.

1.-----------------------------------------
2.-----------------------------------------
3.-----------------------------------------
4.-----------------------------------------
5.---3-------------------------------------
6.---1-------------------------------------

Guitarra 2. 

1.--/12-10-----------/12-10----------/13-12
2.---------13-12-13---------13-12-13-------
3.-----------------------------------------
4.-----------------------------------------
5.-----------------------------------------
6.-----------------------------------------

Guitarra 1.

1.------------------------------------
2.------------------------------------
3.------------------------------------
4.---7--------------------------------
5.---5--------------------------------
6.------------------------------------

Guitarra 2. 

1.--/12-10----------------------------
2.---------13-12-13--13-12-10---------
3.-----------------------------12/14--
4.------------------------------------
5.------------------------------------
6.------------------------------------

Guitarra 1.

1.------------------------------------
2.------------------------------------
3.------------------------------------
4.---4--------------------------------
5.---2--------------------------------
6.------------------------------------

Guitarra 2. 
1.-----------------------
2.---9-10/12---13---15---
3.-----------------------
4.-----------------------
5.-----------------------
6.--------------------...


Más tablaturas de... Rafa Blas.

No hay comentarios:

Publicar un comentario en la entrada