.

banners

Tablatura fácil de... Sagan. Nightwish.




   La Tablatura fácil de hoy pertenece a "Sagan" Tema incluido como bonus track junto con el single "Élan" y sus distintas versiones en el adelanto de lo que sería su nuevo disco, que se lanzó en la primavera pasada, concretamente  el 27 de Marzo, bueno, en realidad lo pudimos disfrutar unos días antes, con el normal calentón de Tuomas Holopainen, líder de la banda que hizo algunas declaraciones dejando claro su malestar.
  Yo he querido dejados una vez más, unos momentos en tablatura del inicio del tema que espero que os guste y lo disfrutéis.
   Un saludo.
   TabsFácil.




Sagan. Nightwish.

   (Piano y flauta).
1.-------------5------------5--8-----
2.---------5-6----------5-6------5-6-
3.---7-7-7--------7-7-7--------------
4.-----------------------------------
5.-----------------------------------
6.-----------------------------------




1.-------------3------------3-----------

2.---------3-5----------3-5---6-5h6h5h3-
3.---5-5-5--------5-5-5-----------------
4.--------------------------------------
5.--------------------------------------
6.--------------------------------------

 (Guitarra).

1.------------------------------------------
2.------------------------------------------
3.------------------------------------------
4.---7--------------------------------------
5.---5-------------------------3------------
6.-----------------------------1------------

(Piano y flauta).
1.-------------5------------5--8------5-6-5-
2.---------5-6----------5-6------5-6--------
3.---7-7-7--------7-7-7---------------------
4.------------------------------------------
5.------------------------------------------
6.------------------------------------------

(Guitarra).

1.------------------------------------------
2.------------------------------------------
3.------------------------------------------
4.---5--------------------------------------
5.---3-------------------------3------------
6.-----------------------------1------------

(Piano y flauta).

1.-------------3------------3---3-5--6-5
2.---------3-5----------3-5---6---------
3.---5-5-5--------5-5-5-----------------
4.--------------------------------------
5.--------------------------------------
6.--------------------------------------

 (Guitarra).

1.----------------------------
2.----------------------------
3.----------------------------
4.---7------------------------
5.---5------------------------
6.----------------------------

(Piano y flauta).

1.---3h5----5-3---3-----------
2.-------6------6---5-6-5-6-3-
3.----------------------------
4.----------------------------
5.----------------------------
6.----------------------------

  (Guitarra).

1.----------------------------
2.----------------------------
3.----------------------------
4.----3--5--------------------
5.----1--3--------------------
6.----------------------------

  (0:54)

1.----------------------------------------
2.----------------------------------------
3.----------------------------------------
4.---7-7--7-7--7-7-7-7---5-5--5-5--5-5-5-5
5.---5-5--5-5--5-5-5-5---3-3--3-3--3-3-3-3
6.----------------------------------------

1.-----------------------------------------

2.-----------------------------------------
3.-----------------------------------------
4.-7-7--7-7--7-7-7-7-----------------------
5.-5-5--5-5--5-5-5-5---8-8-8-8--10-10-10-10
6.---------------------6-6-6-6--8--8--8--8-

1.----------------------------------------

2.----------------------------------------
3.----------------------------------------
4.---7-7--7-7--7-7-7-7---5-5--5-5--5-5-5-5
5.---5-5--5-5--5-5-5-5---3-3--3-3--3-3-3-3
6.----------------------------------------

1.----------------------------------------

2.----------------------------------------
3.----------------------------------------
4.-----------------------3-3--3-3--3-3-3-3
5.---5-5--5-5--5-5-5-5---1-1--1-1--1-1-1-1
6.---3-3--3-3--3-3-3-3-----------------...


Más tablaturas de... Nightwish.

No hay comentarios:

Publicar un comentario