.

banners

Tablatura fácil de... Encadenado. Sôber.


   Un buen trabajo cargado de sonido Sôber nos dejaban en su última entrega que titularon "Letargo." Muestra de ese sonido y buen trabajo es el tema "Encadenado" del que os quiero dejar hoy un momento en tablatura fácil que espero que os guste y disfrutéis.
  Un saludo.
  TabsFácil.





 Encadenado. Sôber.

1.-------------------------------------------
2.-------------------------------------------
3.---------------------------------6-6-4-2---
4.-4-4-6-7-6--4-4-6-7-6--4-4-6-7-6---------6-
5.-------------------------------------------
6.-------------------------------------------

1.-------------------------------------------
2.-------------------------------------------
3.----------------------------------2-3-1----
4.-0-0-2-4-2--0-0-2-4-2--0-0-2-4-2--------4-2
5.-------------------------------------------
6.-------------------------------------------


1.-------------------------------------------
2.-------------------------------------------
3.---------------------------------6-6-4-2---
4.-4-4-6-7-6--4-4-6-7-6--4-4-6-7-6---------6-
5.-------------------------------------------
6.-------------------------------------------


1.-------------------------------------------
2.-------------------------------------------
3.---------------------------------2-1-------
4.-0-0-2-4-2--0-0-2-4-2--0-0-2-4-2----4-2----
5.-----------------------------------------4-
6.-----------------------------------------2-





Más tablaturas de... Sôber.

No hay comentarios:

Publicar un comentario en la entrada