.

banners

Tablatura fácil de... Élan. Nightwish.



  En Tablaturas fáciles estamos aprovechando el parón que anunció la banda Nightwish para publicar algunos momentos en tablatura de su anterior trabajo. Ésta vez le toca al tema que eligieron como single adelanto y que, como el disco, se filtró a nivel mundial días antes de su salida.
  Espero que lo disfrutéis.
  Un saludo.
  TabsFácil.









Élan. Nightwish.(Radio version).


(Guitarra)
1.---------------------------------
2.---------------------------------
3.---------------------------------
4.---7--------------7--------------
5.---5--------------5--------------
6.---------------------------------

(flauta)
1.-------10--------------10--------
2.---/10----10-8-6--8-10----10-8-6-
3.---------------------------------
4.---------------------------------
5.---------------------------------
6.---------------------------------

(Guitarra)
1.-----------------------------------
2.-----------------------------------
3.-----------------------------------
4.-----------------------5-----------
5.---3-3-3---------------3-----------
6.---1-1-1---------------------------

(flauta)
1.---8-8-8---------------------------
2.---------10-8-----8-10-------------
3.--------------10-------12-10-------
4.-----------------------------12-10-
5.-----------------------------------
6.-----------------------------------

(Guitarra)
1.---------------------------------
2.---------------------------------
3.---------------------------------
4.---7-------------5-7-------------
5.---5-------------3-5-------------
6.---------------------------------


(flauta)
1.-------10--------------10--------
2.---/10----10-8-6--8-10----10-8-6-
3.---------------------------------
4.---------------------------------
5.---------------------------------
6.---------------------------------

(Guitarra)
1.-------------------------------------
2.-------------------------------------
3.---------------5-----------------7---
4.-----3---------3-----------------5---
5.-0-0-1-------------------------------
6.-------------------------------------

(flauta)
1.---/10-------------------------------
2.-------10-8-----8-10-----------------
3.------------10-------12--10----------
4.----------------------------12-10-12-
5.-------------------------------------
6.-------------------------------------

(0:55)
1.---------------------------------------
2.---------------------------------------
3.---------------------------------------
4.---7---------7-7-7-7--7-7-7-7--7-7-7-7-
5.---5---///---5-5-5-5--5-5-5-5--5-5-5-5-
6.---------------------------------------

1.-----------------------------------------
2.-----------------------------------------
3.-----------------------------------------
4.-10--9-7-7-7--7-7-7--7-7-7---------------
5.--8--7-5-5-5--5-5-5--5-5-5--3-3-3--3-3-3-
6.----------------------------1-1-1--1-1-1-

1.-----------------------------------------
2.-----------------------------------------
3.-----------------------------------------
4.---------5-5-5--5-5-5--5-5-5--8-8-8--8-8-
5.-3-3-3---3-3-3--3-3-3--3-3-3--6-6-6--6-6-
6.-1-1-1-----------------------------------

1.------------------------------------
2.------------------------------------
3.----------------7-7-7--7-7-7--7-7-7-
4.---8--8-8---8-7-5-5-5--5-5-5--5-5-5-
5.---6--6-6---------------------------
6.------------------------------------

1.-----------------------------------------
2.-----------------------------------------
3.-----------------------------------------
4.-3-3-3--3-3-3--3-3-3--5-5-5--5-5-5--5-5-5
5.-1-1-1--1-1-1--1-1-1--3-3-3--3-3-3--3-3-3
6.-----------------------------------------


1.----------------
2.----------------
3.----------------
4.---5-5-10--9--7-
5.---3-3--8--7--5-
6.----------------...

Más tablaturas de... Nightwish.

No hay comentarios:

Publicar un comentario en la entrada