.

banners

Tablatura fácil de... Ditt endelikt. Sirenia.


   En el verano de 2013 los noruegos Sirenia, capitaneados por la cantante española Ailyn, lanzaban al mercado su sexto álbum de estudio, "Perils of the deep blue."
  Uno de los temas del disco "Ditt endelikt" donde Ailyn "canta" unos párrafos en español es el elegido hoy en tablaturas fáciles para
practicar y disfrutar con la guitarra.
  Un saludo.
  TabsFácil.






Ditt endelikt. Sirenia.           

3:31

“Lamentas lo que una vez fue, ahora, 
que todo lo has perdido.
Arropado por un frio y oscuro brazo.
Alimentado por la soledad, 
vives lamentando la pérdida.”



4:08  Guit. 1.

1.--------------------------------------------------
2.--------------------------------------------------
3.--------------------------------------------------
4.-4-4-4-4-4-4-4-4--4-4-4-4-4-4-4-4--6-6-6-6-6-6-6-6
5.-2-2-2-2-2-2-2-2--2-2-2-2-2-2-2-2--4-4-4-4-4-4-4-4
6.--------------------------------------------------



1.--------------------------------------------------
2.--------------------------------------------------
3.--------------------------------------------------
4.-6-6-6-6-6-6-6-6----------------------------------
5.-4-4-4-4-4-4-4-4--7-7-7-7-7-7-7-7--7-7-7-7-7-7-7-7
6.------------------5-5-5-5-5-5-5-5--5-5-5-5-5-5-5-5



1.--------------------------------------
2.--------------------------------------
3.--------------------------------------
4.--------------------------------------
5.-6-6-6-6-6-6-6-6--6-7--6-7--6-7---6-7-
6.-4-4-4-4-4-4-4-4--4-5--4-5--4-5---4-5-



Guit. 2.

1.-----9--11-9--9h11-7------------------------------
2.-7h9-----------------10-9--9-10--9-10--9-10--9-10-
3.--------------------------------------------------
4.--------------------------------------------------
5.--------------------------------------------------
6.--------------------------------------------------
Más tablaturas de... Sirenia.

No hay comentarios:

Publicar un comentario en la entrada