.

banners

Tablatura fácil de... Como el viento. Saratoga.


     El 13 de Mayo es la fecha elegida para la publicación de lo que será el regreso de la banda Saratoga, de cuyo trabajo ya nos adelantan "Como el viento," un tema que del que yo os quiero dejar un momento en tablaturas fáciles del inicio de la canción con el que espero que disfrutéis como yo lo he hecho.
  Un saludo.
  TabsFácil.





Como el viento. Saratoga.

1.-/6-4-----4-4-6-7-6----4-4-6-7-6-|
2.------7-4------------4-----------|
3.---------------------------------|
4.---------------------------------|
5.---------------------------------|
6.---------------------------------|

1.-4-------------------4---/14-13--|
2.---7-6-4-2---7-------------------|
3.-----------4----4-6--------------|
4.---------------------------------|
5.---------------------------------|
6.---------------------------------|

1.----------------14-16-14---------|
2.-16------/18-18-------------/18--|
3.----15-------------------15------|
4.---------------------------------|
5.---------------------------------|
6.---------------------------------|

1.----14-16-14--14-13--------------|
2.-18-----------------16-14--------|
3.--------------------------15-16--|
4.---------------------------------|
5.---------------------------------|
6.---------------------------------|

1.-14--------16----|
2.--------14----14-|
3.-----16----------|
4.-----------------|
5.-----------------|
6.-----------------|...





Más tablaturas de...Saratoga.

No hay comentarios:

Publicar un comentario en la entrada