.

banners

Tablatura fácil de... City of heroes. Kiske/Somerville.



  A mediados de Abril del año pasado, volvíamos a escuchar nuevas canciones del proyecto Kiske/Somerville que llevaba por nombre "City of héroes".
  Desde estas páginas estamos encantados de volver a escuchar las voces de estos grandes, juntos y es por eso, que, no podíamos dejar escapar la oportunidad de publicar alguna tabs fácil, así que hoy en tablaturas fáciles, unos momentos en tablatura del tema que da título al disco.
   Esperámos que os guste y que lo disfrutéis.
     Un saludo.
     TabsFácil.











City of heroes. Kiske/Somerville.

Guitarra 1.
1.-----------------------------
2.-----------------------------
3.-----------------------------
4.-----------------------------
5.---3-------------------------
6.---1-------------------------

Guitarra 2.
1.-----------------------------
2.-----------------------------
3.----------5-3---3--1-3-------
4.---3-3--3-----6--------1-3---
5.-----------------------------
6.-----------------------------

Guitarra 1.
1.-----------------------------
2.-----------------------------
3.-----------------------------
4.-----------------------------
5.---6-------------------------
6.---4-------------------------

Guitarra 2.
1.---------------------------1-
2.-----------------------1-4---
3.----------5-3---3--1-3-------
4.---3-3--3-----6--------------
5.-----------------------------
6.-----------------------------

Guitarra 1.
1.-----------------------------
2.-----------------------------
3.-----------------------------
4.---6-------------------------
5.---4-------------------------
6.-----------------------------

Guitarra 2.
1.-----------------------------
2.-----------------------------
3.----------5-3---3--1-3-------
4.---3-3--3-----6--------1-3---
5.-----------------------------
6.-----------------------------

Guitarra 1.
1.-----------------------------
2.-----------------------------
3.-----------------------------
4.---8------------8-8-8--8-8-8-
5.---6------------6-6-6--6-6-6-
6.-----------------------------

Guitarra 2.
1.---------------------------1-
2.-----------------------1-4---
3.----------5-3---3--1-3-------
4.---3-3--3-----6--------------
5.-----------------------------
6.-----------------------------

Guitarra 1.
1.-----------------------------
2.-----------------------------
3.-----------------------------
4.-----------------------------
5.---3-------------------------
6.---1-------------------------

Guitarra 2.
1.-----------------------------
2.-----------------------------
3.----------5-3---3--1-3-------
4.---3-3--3-----6--------1-3---
5.-----------------------------
6.-----------------------------

Guitarra 1.
1.-----------------------------
2.-----------------------------
3.-----------------------------
4.-----------------------------
5.---6-------------------------
6.---4-------------------------

Guitarra 2.
1.---------------------------1-
2.-----------------------1-4---
3.----------5-3---3--1-3-------
4.---3-3--3-----6--------------
5.-----------------------------
6.-----------------------------

Guitarra 1.
1.-----------------------------
2.-----------------------------
3.-----------------------------
4.---6-------------------------
5.---4-------------------------
6.-----------------------------

Guitarra 2.
1.-----------------------------
2.-----------------------------
3.----------5-3---3--1-3-------
4.---3-3--3-----6--------1-3---
5.-----------------------------
6.-----------------------------

Guitarra 1.
1.-----------------------------
2.-----------------------------
3.-----------------------------
4.---8------------8-8-8--8-8-8-
5.---6------------6-6-6--6-6-6-
6.-----------------------------

Guitarra 2.
1.------------------------------
2.------------------------1-----
3.---------5-3--1-3-3-3-1---3-3-
4.--3-3--3----------------------
5.------------------------------
6.------------------------------

   (0:20)    "  I ...
1.---------------------------------------
2.---------------------------------------
3.---------------------------------------
4.---------------------------------------
5.---------------------------------------
6.---1-1-1-1-1-1-1-1--1-3-4--1-1-1-1-1-1-

1.----------------------------------------
2.----------------------------------------
3.----------------------------------------
4.----------------------------------------
5.---6--8------3--------------------------
6.---4--6--4h3-1--1-1-1-1-1-1-1-1-1--1-3-4

1.--------------------------------
2.--------------------------------
3.--------------------------------
4.---6--8-------------------------
5.---4--6---6-6/-5----------------
6.----------4-4/-3--1-1-1-1-1-1---...

Más tablaturas de... Kiske/Somerville.

No hay comentarios:

Publicar un comentario en la entrada