.

banners

Tablatura fácil de... Breaking Neptune. Kiske/Somerville.





   Discazos son los que se marcan siempre esta pareja Kiske/Somerville. Tanto el anterior que también pasó por este blog, como éste último "City of héroes", del que hoy os quiero dejar el inicio de uno de sus cortes en tablatura, "Breaking Neptune" un bonito tema y un riff de inicio súper interesante para practicar.
   Un saludo.
   TabsFácil.





Breaking Neptune. Kiske/Somerville.

1.---------------------------------
2.---------------------------------
3.---------------------------------
4.-------9-------------9-----------
5.---7-7---7-10-9--7-7---7-7-10-9--
6.---------------------------------

1.---------------------------------
2.---------------------------------
3.-------------7-------------------
4.-----------7--------9------------
5.---5-5-9-9------7-7---7-10-9--5-5
6.---------------------------------

1.---------------------------------
2.---------------------------------
3.---5-4---------------------------
4.-------7------7--5h7h5h4------9--
5.---------5-5--------------7-7---7
6.---------------------------------

1.---------------------------------
2.---------------------------------
3.---------------------------------
4.-------------9-------------------
5.---10-9--7-7---7-7-10-9--5-5-9-9-
6.---------------------------------

1.----------------------------------
2.----------------------------------
3.-----7--/9--12--/16--14-12--11-12-
4.---7------------------------------
5.----------------------------------
6.--------------------------------...


Más tablaturas de... Kiske/Somerville.

No hay comentarios:

Publicar un comentario en la entrada