.

banners

Tablatura fácil de... Big foot. Chickenfoot.


    Una superabanda formada entre otros por Joe Satriani y Sammy Hagar, que nos dejó 3 discos muy interesantes. Del titulado "Chickenfoot III"  quiero dejaros hoy un pequeño momento en tablatura fácil del tema "Big foot," que espero que os guste y disfrutéis.
  Un saludo.
  TabsFácil.





Chickenfoot. Big foot.


1.---------------------------------------
2.---------------------------------------
3.---------------------------------------
4.---2-4-------------2-4---2-4---------2-
5.-4-------------2-4-------------------0-
6.-2-----2-2-2-2---------2-----2-2-2-2---


1.---------------------------------------
2.---------------------------------------
3.---------------------------------------
4.---2-4-------------2-4---2-4-2---------
5.-4-------------2-4-----4-0-2-0---------
6.-2-----2-2-2-2---------2---------------

Tocamos el riff dos veces y . . . .

1.------------------------------------------
2.------------------------------------------
3.------------------------------------------
4.-------------------------------------2---2
5.-------------------------------------0-2-0
6.-2-2-2-2-2-2---2-2-2-2-2-2---2-2-2-2---0--

1.-------------------------------------------
2.-------------------------------------------
3.-------------------------------------------
4.-------------------------------------------
5.------------------------0-0-0-0-2-2-2-2----
6.-2-2-2-2-2-2-2-2-2-2-2------------------0-2 

Más tablaturas de... Chickenfoot.

No hay comentarios:

Publicar un comentario