.

banners

Tablatura fácil de... 512 Lamb of god.




   Hoy en Tabs fáciles nada más y nada menos que Lamb of God, con lo que sería el segundo adelanto de su último trabajo, que a mi personalmente, me gusta y mucho, sobre todo las guitarras y el virtuosísmo que desprenden.
 "VII: Sturm und drang" llevaba por título su séptimo trabajo, si no recuerdo mal, y "512"  uno de los adelantos del disco, en concreto el corte 3, del que os quiero dejar unos momentos en tablatura que, espero que os guste y disfrutéis como siempre os digo.
    Un saludo.
    TabsFácil.









512. Lamb of god.

1.----------------------------------
2.---10-9----10-9----10-9----10-9---
3.----------------------------------
4.--------11------11------11------11
5.----------------------------------
6.----------------------------------

1.------------------------------
2.--9-8----9-8----9-8----9-8----
3.------------------------------
4.------11-----11-----11-----11-
5.------------------------------
6.------------------------------

1.----------------------------------
2.---10-9----10-9----10-9----10-9---
3.----------------------------------
4.--------11------11------11------11
5.----------------------------------
6.----------------------------------

1.------------------------------
2.--8-9----8-9----8-9----8-9----
3.------------------------------
4.------11-----11-----11-----11-
5.------------------------------
6.------------------------------...


(0:41)
1.---------------------------------
2.---------------------------------
3.---------------------------------
4.---6----4--------------------1-2-
5.---4--4---7-6-4-6-7-4-4-7--4-----
6.---------------------------------

1.---------------------------------
2.---------------------------------
3.---------------------------------
4.--6-6----4--------------------1-2
5.--4-4--4---7-6-4-6-7-4-4-7--4----
6.---------------------------------


1.---------------------------------
2.---------------------------------
3.---------------------------------
4.--2----4-2-1---1-1-2-----2---1h2-
5.--0--0-------4-------4-4---4-----
6.---------------------------------


1.----------------------------------
2.----------------------------------
3.-----------2-1-------1h2h1h0------
4.-----4-2-1-----1-2-4---------4-2-6
5.--4------------------------------4
6.--2-----------------------------...

Más tablaturas de... Lamb of God.

No hay comentarios:

Publicar un comentario en la entrada