.

banners

Acordes y Tablatura fácil de... Lo que nos mantiene unidos. Amaral.


  Las canciones de Amarl están repletas de secuencias de acordes y tablaturas fáciles con los que poder practicar a la vez que te diviertes...
  Aprovechando la salida de su último sencillo "Lo que nos mantiene unidos" quiero dejaros un momento en tablatura fácil que espero que os guste y disfrutéis.
  Un saludo.
  TabsFácil.
 







Lo que nos mantiene unidos. Amaral.

1.----------------------------|
2.---6---7---6--------------6-|
3.---------8---6-8------------|
4.-8---8-----------10/-8--8---|
5.----------------------------|
6.----------------------------|

1.-------------|
2.---7---6-----|
3.-----8---6-8-|
4.-8-----------|
5.-------------|
6.-------------|...


   Me rindo, por tu manera de decir que no
1.---1---------------------4-|
2.---2---------------------5-|
3.---3---------------------6-|
4.---3---------------------6-|
5.---1---------------------4-|
6.---------------------------|

   a la corriente que se nos llevó ...uhh ...
1.--------------------4------1-|
2.--------------------4------2-|
3.--------------------5------3-|
4.--------------------6------3-|
5.--------------------6------1-|
6.--------------------4--2-1---|



Más tablaturas de... Amaral.

No hay comentarios:

Publicar un comentario en la entrada