.

banners

Tabs fácil de...Poisonous shadows. Megadeth.


  Otro de los temas donde se nota la influencia del nuevo guitarrista de Megadeth, como no podía ser de otra manera.
  Os dejo en tablaturas fáciles un momento, en concreto el inicio del tema que corresponde con esa intro fantástica de "Poisonous Shadows."
  Espero, como siempre que esta tabs fácil.es os guste y disfrutéis con ella.
  Un saludo.
  TabsFácil.






Poisonous Shadows.

1.-----------------------------------|
2.-3-4-3-----------------------------|
3.-------2-5-------------------------|
4.-----------5-7-7-8-7--5------------|
5.-------------------------5-5-7-8-7-|
6.-----------------------------------|

1.-----------------------------------|
2.--------------------3-4-3----------|
3.--------------2-3-5-------2--5h3h0-|
4.-------2--3-5----------------------|
5.-2-3-5-----------------------------|
6.-----------------------------------|

1.---------------------------------------|
2.---------------------------------------|
3.-2-3-2-----------------------0-0--2-3-5
4.-------2-5-0-2-3-0-------2-3-----------|
5.-------------------2-3-5---------------|
6.---------------------------------------|



No hay comentarios:

Publicar un comentario en la entrada