.

banners

Tabs fácil de... Who's been talking. Jorge Salán.


  Cambio diametral el que nos proponía con este trabajo el fenomenal guitarrista Jorge Salán y su banda The Majestic Jaywalkers, detrás dejaba el virtuosismo  metalero para adentrarse en el blues más puro con, cambio de look incluído.
  El álbum  "Madrid/Texas" salió a la venta en Enero  del año pasado y su segundo single "Who's been talking", del cuál os quiero dejar un pequeño momento en tablatura, a últimos de Marzo del 2015.
  Un saludo.
  TabsFácil.
 




                       


Who's been talking. Jorge Salán and the majestic jaywalkers.

1.----------------------------------------
2.---------------5---7(9)-7h5----/5-------
3.------4---4----6------------6---------4-
4.---/6---6---6----------------------/6---
5.----------------------------------------
6.----------------------------------------

1.----------------------------------------

2.-----------5--------5-------------------
3.-----4-----6---4------6-------4---4-----
4.---6---6---------6---------/6---6---6--7
5.---------------------------------------7
6.----------------------------------------

1.------------------

2.----------------5-
3.------4---4-----6-
4.---/6---6---6-----
5.------------------
6.----------------...

No hay comentarios:

Publicar un comentario