.

banners

Tabs fácil de... Walk this way. Aerosmith.


   "Walk this way" compuesta por Steven Tyler y Joe Perry para el disco "Toys in the attic" de 1975 llego a alcanzar el puesto nº 10 en la famosa lista Billboard americana. 
   Años después volvió a ser regrabada en diferentes versiones entre las que destaca la de los raperos Raising hell... El caso es que estos días la estoy escuchando en la T.V. gracias a un anuncio y me he dicho, "que buen riff para Tablaturas fáciles" y ahí lo tenéis, si, ya sé que es una de esas tablaturas que circula desde hace años por la web pero bueno, no obstante os la dejo para que la disfrutéis.
  Un saludo.
  TabsFácil.





Walk this way. Aerosmith.

1.------------------------------------------|
2.------------------------------------------|
3.------------------------------------------|
4.-------2---------2----------2-------2---2-|
5.-0-1-2-----0-1-2------0-1-2---0-1-2-------|
6.-------------------0------------------3---|

1.----------------------------------------|

2.----------------------------------------|
3.--------------------------------------2-|
4.-------2---------2----------2-------2-2-|
5.-0-1-2-----0-1-2------0-1-2---0-1-2---0-|
6.-------------------0-------------------...



Más tablaturas de...Aerosmith.

No hay comentarios:

Publicar un comentario en la entrada