.

banners

Tabs fácil de ... Too late. Dover.


    Atrás queda ya aquel "Devil came to me" que tan grata sorpresa diera no solo a mí, sino también a todo el panorama musical de la época, ahora parece ser que Dover han decidido regresar con esos aires más rockeros que perdieran tiempo atrás y nos presentan "Too late" sencillo adelanto de lo que fuera su último trabajo que saliera hace más o menos un año.
  A Dover le guardo especial cariño desde aquel disco tan refrescante y que me pilló con mi primera guitarra en las manos, y es por eso que hoy quiero dejaros unos momentos en tablatura fácil del tema "Too late".
   
  Un saludo.
   TabsFácil.











Too late. Dover.


1.---------------------------------------------
2.---------------------------------------------
3.---------------------------------------------
4.-9-9-9-9-9--9-9-9-9-9--9-9-9-9-9-------------
5.-7-7-7-7-7--7-7-7-7-7--7-7-7-7-7--9/11-/9/-7-
6.----------------------------------7-/9/-7/-5-

1.------------
2.------------
3.------------
4.-------9----
5.--9----7--9-
6.--7-------7-...

(1:44)
1.---------------------------------------------
2.---------------------------------------------
3.--11(13)(11)-9--11(13)(11)-9-----9-----------
4.------------------------------11---11-9--9-9-
5.---------------------------------------------
6.---------------------------------------------

1.------------------------------------------
2.------------------------------------------
3.-----9---11(13)11-9--11(13)(11)(13)(11)-9-
4.--11--------------------------------------
5.------------------------------------------
6.------------------------------------------


1.--------------------------------------------
2.--12(14)(12)-9-12-----12----10-9------------
3.-------------------13----13------11-9----13-
4.--------------------------------------11----
5.--------------------------------------------
6.--------------------------------------------


1.--------------------------------------------
2.--10----12--10-10-----------12----10-9------
3.-----13-----------13-13--13----13------11-9-
4.--------------------------------------------
5.--------------------------------------------
6.--------------------------------------------


1.--------------------
2.----------12(14)-12-
3.-----9-8------------
4.--11----------------
5.--------------------
6.--------------------...

Más tablaturas de...Dover.

2 comentarios:

  1. Podrías poner el tabulado completo de las partes de la cancion? muchas gracias!!

    ResponderEliminar
  2. Hola Boni:
    Lamentamos decirte que no disponemos de toda la tablatura del tema.
    Un cordial saludo.

    ResponderEliminar