.

banners

Tabs fácil de... Sonata simpática. Gregor Montesinos.

  Todavía estoy alucinando por varias razones desde que hace unos días descubriera por casualidad a este virtuoso guitarrista. La primera, por que ya tienen unos años los temas que he escuchado y no había oído hablar de él, bueno esta razón lo que hace es que me sienta culpable, pero bueno, más vale tarde que nunca. La segunda, por que es de La Carolina, casi paisano, y la tercera, porque toca increiblemente bien la guitarra eléctrica. 
   No podía faltar en mi humilde blog de tablaturas fáciles un guitarrista de la talla de Gregor Montesinos, al cual desde aquí, le deseo toda la suerte del mundo.

  Más tablaturas de Gregor Montesinos:

- Pídeme la luna.


  Un saludo.
  TabsFácil.










Sonata simpática. Gregor Montesinos.



1.-----------------------------------------------
2.-----------------------------------------------
3.-------------4-3-3--------------4-3-3----4---4-
4.---4---4---4----------4---4---4--------2---2---
5.-2---2---2----------2---2---2------------------
6.-----------------------------------------------

1.----------------------------------
2.------------------7-5-------5-4---
3.---4-4-3-4---4-6-4-----3-4-3------
4.-2--------------------------------
5.----------------------------------
6.----------------------------------. . .


1.-------------------7-6-------------------7-6-
2.-5-7-7h5-7-7-7h5-7-----5-7-7h5-7-7-7h5-7-----
3.---------------------------------------------
4.---------------------------------------------
5.---------------------------------------------
6.---------------------------------------------

1.--------------------7-9-
2.------------------------
3.-8-9-9h8--9-9-9h8-9-----
4.------------------------
5.------------------------
6.------------------------

1.-------------------------------------
2.--------------------12-14-14(16)(14)-
3.--4-6-6h4-6-6-6h4-6------------------
4.-------------------------------------
5.-------------------------------------
6.-------------------------------------. . .



(3:17)(José Rubio).

1.--------------------------------------------------
2.-7h9--9-/12-7-------------------------------------
3.--------------6-/8-6--3(4)(3)---------------------
4.------------------------------6-4-4h6-6--6-8h6h4h6
5.--------------------------------------------------
6.--------------------------------------------------

1.--------------4---7---9---11---12h11---11h9h7-9-
2.--------7/9-------------------------------------
3.-4-6-8------------------------------------------
4.------------------------------------------------
5.------------------------------------------------
6.------------------------------------------------

1.-11h9-------------------------------------
2.------------------------------------------
3.------(16)(15)-(16)(15)-13-/11---------13-
4.-------------------------------11-9-------
5.------------------------------------11----
6.------------------------------------------. . .

(4:30)(Ambos).
1.---------------------11-11h9-9--------------------
2.-5-7-7--5-7-7--5-7-7-----------4-5-5--4-5-5--4-5-5
3.--------------------------------------------------
4.--------------------------------------------------
5.--------------------------------------------------
6.--------------------------------------------------

1.-12-12h11-11--9-11-9-7-9--7h9h7h6-7-9-9/11-9--7
2.-----------------------------------------------
3.-----------------------------------------------
4.-----------------------------------------------
5.-----------------------------------------------
6.-----------------------------------------------

1.-9-11--9-11-12---11-12-14---14(16)-
2.-----------------------------------
3.-----------------------------------
4.-----------------------------------
5.-----------------------------------
6.-----------------------------------. . .





No hay comentarios:

Publicar un comentario