.

banners

Tabs fácil de... Rock is my life. Judith Mateo.



  Esperadísimo el nuevo trabajo de Judith Mateo y más cuando escuchas el sencillo "Rock is my life," una versión de Bachman & Turner y es que esta rockera violinista no nos deja indiferentes con su talento.
  Os quiero dejar unos momentos en tablaturas fáciles para que disfrutéis con su música y practiquéis con vuestra guitarra un tema muy divertido y alegre.

  Disfruta de todas las tabs fáciles de Judith Mateo:

- Kashmir.
- Raggle.

  Un saludo.
  TabsFácil.




  


Rock is my life. Judith Mateo.



1.---------------------------|
2.---------------------------|
3.-6--7-6--------6--7-6------|
4.-4--5-4--2-2---4--5-4--2-2-|
5.---------0-0-----------0-0-|
6.---------------------------|

1.---------------------------|
2.---------------------------|
3.-6--7-6--------6--7-6------|
4.-4--5-4--2-2---4--5-4--2-2-|
5.---------0-0-----------0-0-|
6.---------------------------|...


(0:45)
1.---------------------------|
2.---------------------------|
3.-6--7-6--------------------|
4.-4--5-4------5-7-5---------|
5.---------5-7-------5-7-5---|
6.-------------------------8-|

1.--------------------------|
2.--------------------------|
3.--------------------------|
4.----------7--9-9--9--7-7--|
5.-5--7-7---5/-7-7--7/-5-5--|
6.-3/-5-5-------------------|

1.--------------------------|
2.--------------------------|
3.--------------------------|
4.----------7--9-9--9--7-7--|
5.-5--7-7---5/-7-7--7/-5-5--|
6.-3/-5-5-------------------|

1.--------------------------|
2.--------------------------|
3.--------------------------|
4.----------7--9-9--9--7-7--|
5.-5--7-7---5/-7-7--7/-5-5--|
6.-3/-5-5-------------------|

1.--------------------------|
2.--------------------------|
3.--------------------------|
4.----------7--9-9--7-9--5-7
5.-5--7-7---5/-7-7--5-7-----|
6.-3/-5-5-------------------|

1.-------------------|
2.-------------------|
3.-------------------|
4.-5-----------------|
5.---5-7-5----5--7-7-|
6.---------8--3/-5-5-|...




No hay comentarios:

Publicar un comentario en la entrada